Oops, an error
Loading. Please wait.

Prophets Of Rage tab

version 1
version 1

Whole song

Interactive

3,151 views 108 this week
1 commentread comment
1 2 3 4 5
x 6
add to favorites
×
Save as Personal and add changes to this tab that will be seen only by you. Learn more ›
×
You can save this tab as Personal to edit and correct it or add notes. All changes will be seen only by you. Learn more »
launch autoscroll
font size
0
reset
how to read this tab
guitar tuner
edit
Autoscroll
slow
fast
+/-
esc
set tempo
stop
Author
Difficulty
This is a pretty sweet song from Prophets of Rage, though it uses a slightly different key to the classic
Morello songs of old.

As always its very simple and just needs the right feel and a Whammy.
I'm not 100% on whether this requires just a simple -1 octave harmonising at all times, or whether its -5th
harmonising. Have a play... I'm yet to actually get out and play it with my RATM tribute act, so will update
when I've got it right.

Timing for each bar is indicated above it to avoid confusion.
Underneath is the notation for up/down strokes where applicable.

Structure:
Intro
Verse
Chorus
Verse
Chorus
Verse
Chorus
Outro


[Intro]
Roll your volume back a bit and slight palm mute
    1   +   2   +   3   +   4   +
e|----------------------------------|
B|----------------------------------|
G|----------------------------------|
D|--3-1-3---3-1-3---3-1-3-----------| x8
A|----------------------------------|
E|--------------------------1-------|

Full volume, no palm mute.
    1   +   2   +   3   +   4   +
e|----------------------------------|
B|----------------------------------|
G|----------------------------------|
D|--3-1-3---3-1-3---3-1-3-----------| x4
A|----------------------------------|
E|--------------------------1-------|


[Verses]
Ridiculously simple, even for Morello. Effective as always though.
The bend is "slow" up to the 15 across the whole beat and a half.

   1   +   2   +   3   +   4   +
e|---------------------------------|
B|-------------13    b     15------|
G|---------------------------------|
D|---------------------------------| x7
A|---------------------------------|
E|---------------------------------|

   1   +   2   +   3   +   4   +
e|---------------------------------|
B|---------------------------------|
G|---------------------xx--xx--xx--|
D|---------------------xx--xx--xx--| x1
A|---------------------xx--xx--xx--|
E|---------------------------------|
                       ud  ud  ud     <- notation for up/down strokes


[Choruses]

    1   +   2   +   3   +   4   +   1   +   2   +   3   +   4   +
e|--------------------------------|--------------------------------|
B|--------------------------------|--------------------------------|
G|--------------------------------|--------------------------------|
D|--8h9h10------------------------|--------------------------------| x1
A|----------8---6-----------------|--------------------------------| 
E|----------------------8---------|-8-7-6---4---6-------8----------|

    1   +   2   +   3   +   4   +   1   +   2   +   3   +   4   +
e|--------------------------------|--------------------------------|
B|--------------------------------|--------------------------------|
G|--------------------------------|---------------------x-x--------|
D|--8h9h10------------------------|---------------------x-x--------| x1
A|----------8---6-----------------|-6-----6-----6-------x-x-6h8----|
E|----------------------8---------|-----8-----8--------------------|
                                                        u d    <- notation for up/down strokes

    1   +   2   +   3   +   4   +   1   +   2   +   3   +   4   +
e|--------------------------------|--------------------------------|
B|--------------------------------|--------------------------------|
G|--------------------------------|--------------------------------|
D|--8h9h10------------------------|--------------------------------| x1
A|----------8---6-----------------|--------------------------------|
E|----------------------8---------|-8-7-6---4---6-------8----------|

    1   +   2   +   3   +   4   +   1   +   2   +   3   +   4   +
e|--------------------------------|--------------------------------|
B|--------------------------------|--------------------------------|
G|--------------------------------|---------------------x-x--------|
D|--8h9h10------------------------|---------------------x-x--------| x1
A|----------8---6-----------------|-6-----6-----6-------x-x-6h8----|
E|----------------------8---------|-----8-----8--------------------|
                                                        ud    <- notation for up/down strokes


[Outro]
Same as intro ...
    1   +   2   +   3   +   4   +
e|---------------------------------|
B|---------------------------------|
G|---------------------------------|
D|--3-1-3---3-1-3---3-1-3----------| x8
A|---------------------------------|
E|--------------------------1------|

Full volume, no palm mute.
    1   +   2   +   3   +   4   +
e|---------------------------------|
B|---------------------------------|
G|---------------------------------|
D|--3-1-3---3-1-3---3-1-3----------| x7
A|---------------------------------|
E|--------------------------1------|

    1   +   2   +   3   +   4   +
e|---------------------------------|
B|---------------------------------|
G|---------------------------------|
D|--3-1-3---3-1-3---3-1-3----------| x1
A|---------------------------------|
E|---------------------------------|

END!

            
            
Suggest correction
Creating personal tab
Creating personal tab
You can edit any tab online and save it as your Personal.

You can edit, replace or remove any tab part or add personal notes – all changes will be seen only by you.

Personal tabs can be accessed anytime from any device, even offline.
Learn more »
comments
print report bad tab
1 comment total.
0 reply
mygodbecareful 58 Jul 29, 2016 10:05 AM

Nice Tab and that was FAST!

guest
You may want to rate the tab now too:
select rating
Wanna post a correction for this tab? Suggest correction