Oops, an error
Loading. Please wait.

Radical Eyes tab

322 views 27 this week
4 commentsread comments
1 2 3 4 5
2 more votes to show rating
add to favorites
×
Save as Personal and add changes to this tab that will be seen only by you. Learn more ›
×
You can save this tab as Personal to edit and correct it or add notes. All changes will be seen only by you. Learn more »
launch autoscroll
font size
0
reset
how to read this tab
guitar tuner
edit
Autoscroll
slow
fast
+/-
esc
set tempo
stop
Here are the guitar tabs for the Prophets of Rage latest song 'Radical Eyes' !
https://youtu.be/71KWvGh0uvU this cover helped me work out notes so use this video for reference
Tuning is Standard
On the intro and the start of the verse Tom uses a Whammy Pedal i have added a 'W' where he uses it or 
said next to the bar.
This is the whole song without the solo 
Other than that I think my rendition is pretty accurate!
Thanks!

[Intro with whammy pedal]
e|---------------------------------------------------------------------------|
B|---------------------------------------------------------------------------|
G|--8-10--/10W--/10W--8-10--/10W--/10W--8-7--/7W--/7W--8-7--/7W--/7W---------| x2
D|--8-10--------------8-10--------------8-7------------8-7-------------------|
A|--6-8---------------6-8---------------6-5------------6-5-------------------|
E|---------------------------------------------------------------------------|

[Verse]
            ↓ ↓↑
e|----------x-xx---------x--|
B|----------x-xx---------x--|
G|----------x-xx---------x--|x6
D|----------x-xx-----6---x--|
A|--6h8-(8)-x-xx-6h8--8--x--|
E|----------x-xx---------x--|

e|-----------|
B|-----------|
G|-----------|x1
D|-----------|
A|--6h8-(8)--|
E|-----------|

[Chorus]
                  ↓ ↑
e|----------------x-x--|
B|----------------x-x--|
G|----------------x-x--|x4
D|------6------6--x-x--|
A|--6h8--8-6h8--8-x-x--|
E|----------------x-x--|

[Verse Start with whammy pedal]

e|------------------|
B|------------------|
G|------------------|x4 (with Whammy pedal)
D|--------6-6-------|
A|--8b9~-----8-6-8--|
E|------------------|

            ↓ ↓↑
e|----------x-xx---------x--|
B|----------x-xx---------x--|
G|----------x-xx---------x--|x12
D|----------x-xx-----6---x--|
A|--6h8-(8)-x-xx-6h8--8--x--|
E|----------x-xx---------x--|

[Chorus]
                  ↓ ↑
e|----------------x-x--|
B|----------------x-x--|
G|----------------x-x--|x4
D|------6------6--x-x--|
A|--6h8--8-6h8--8-x-x--|
E|----------------x-x--|

[Verse Start with whammy pedal]
e|------------------|
B|------------------|
G|------------------|x4 (with Whammy pedal)
D|--------6-6-------|
A|--8b9~-----8-6-8--|
E|------------------|

[Solo] 
            ↓ ↓↑
e|----------x-xx---------x--|
B|----------x-xx---------x--|
G|----------x-xx---------x--|x10
D|----------x-xx-----6---x--|
A|--6h8-(8)-x-xx-6h8--8--x--|
E|----------x-xx---------x--|

e|------------------|
B|------------------|
G|------------------|x4 (with Whammy pedal)
D|--------6-6-------|
A|--8b9~-----8-6-8--|
E|------------------|

[Outro]
e|----------------x-x--|
B|----------------x-x--|
G|----------------x-x--|x3
D|------6------6--x-x--|
A|--6h8--8-6h8--8-x-x--|
E|----------------x-x--|

e|------------------|
B|------------------|
G|------------------|
D|------6-------6---|
A|--6h8--8--6h8--8--|
E|------------------|



************************************

| /    Slide up
| x    Dead note
| (n)  Ghost note
| h    Hammer-on
| b    Bend
| ~    Vibrato
 

************************************

            
            
Suggest correction
Creating personal tab
Creating personal tab
You can edit any tab online and save it as your Personal.

You can edit, replace or remove any tab part or add personal notes – all changes will be seen only by you.

Personal tabs can be accessed anytime from any device, even offline.
Learn more »
Give kudos to tab author, rate the tab!
1 2 3 4 5
comments
print report bad tab
4 comments total. Showing first comments.
0 reply
Armotron 15 Aug 12, 2017 09:27 AM

Excellent job as always. Two things 1) Keep working on the solo I understand those can be tricky to figure out. 2) What is the specific setting on the digi-tech whammy pedal? Is it 2 octaves up? or 1 octave on the harmonizer? Do you use the wah wah with the digi-tech whammy setting? Thank you. Keep the tabs going for the entire new Prophets of Rage CD which is coming out Septemtember 15th!

0 reply
scopin27 118 Aug 14, 2017 08:10 AM

hey man glad you liked the tab i'm planing to hopefully do the full album when it releases i believe the setting is 1 octave on the harmonizer i don't own a whammy but i need to get one to play these songs properly
thanks again

0 reply
Armotron 15 Aug 12, 2017 10:28 AM

It's 1 octave on the harmonizer

guest
You may want to rate the tab now too:
select rating
Wanna post a correction for this tab? Suggest correction