Oops, an error
Loading. Please wait.

Blindfolds Aside Bass Tab

version 1
version 1

Whole song

Interactive

9,059 views 3 this week
4 commentsread comments
1 2 3 4 5
accurate
x 7
add to favorites
launch autoscroll
font size
0
reset
guitar tuner
Tab Pro tools
  • play this tab
  • loop segment
  • change instrument
  • show fretboard
  • metronome
×
Best way to learn
"Blindfolds Aside"
Autoscroll
slow
fast
+/-
esc
set tempo
stop
Contributor
Difficulty
advanced
Blindfolds Aside, awesome song, awesome band, awesome bassist.
Tuning: Eb Ab Db Gb

0:00-0:11
Gb|--------------------------------------------------------------------------------------------|
Db|----------------5070504050704h5p4p0-------------------------------------5070504050704h5p4p0-|
Ab|-----------------------------------------------6--------------------------------------------|
Eb|-55-5-5-5-5-5-0---------------------5-5-5-5-5----5-5-5-5-5-5-5-5-5-5-0----------------------|

Just Guitar then

0:14-0:28
Gb|-------------------------------------------------------------------------|
Db|-------------------------------------------------------------------------|
Ab|---------00-3-5-00-3---00-3-5-00-3--------3-5-00-3---00-3-5-00-3---------|
Eb|-00-5----------------3-------------3-55-5----------3-------------3-55-55-|

Gb|-------------------------------------------------|
Db|-------------------------------------------------|
Ab|-3-5-0-3---0-3-5-0-3------3-5-00-3---00-3-5-00---|
Eb|---------3-----------3-55----------3-----------3-|

0:28-0:33
Gb|------------------------------------------5-7-5-5h7---------|
Db|--------------------------------------5-7-----------7-5-----|
Ab|----------------------------------5-7-------------------7-5-|
Eb|-11111111111111-00000000000000--5---------------------------|

0:33-0:42
Gb|--------------------------------------------------------------|
Db|--------------------------------------------------------------|
Ab|--------------------------------------------------------------|
Eb|-55555--55-555-11111111111111-00000000000000-55555553-3333333-|

Quick bass rest then

0:45-0:0:57
Gb|-------------------------------------------------------------------5-75--------|
Db|---------------------------------------------------------------7-5------75-----|
Ab|-00-3-5-00-3---00-3-5--3-------------------333333333333--------------------7-5-|
Eb|-------------3-----------4---0-0-0---0-0-0-------------555555------------------|

0:57-1:15
Gb|-----------------------------------------------------------------------------------------------|
Db|-----------------------------------------------------------------------------------------------|
Ab|--------------333333333333-----------------------------333333333333---------------333333333333-|
Eb|-0-0-0--0-0-0--------------555555555555--333333-222222--------------333333-222222--------------|

Acoustic Interlude 1:15-1:19

1:19-1:39
Gb|-----------------------------------------------------------------|
Db|-----------------------------------------------------------------|
Ab|--------------------------3333333-0000000--------3333333-0000000-|
Eb|-000-00---000-00---000-00-----------------000-00-----------------|

1:39-1:54
Gb|--------------|
Db|--------------|
Ab|-10-9-10-rest-|
Eb|--------------|x8

1:54-2:02
Gb|-----------0-----------------0---0----------------0--------------------------------|
Db|---2-----2-----2-----2-----2--------------2-----2--------2-------2-3-2----------10-|
Ab|-0---3-2-----3---2-0---3-2----3----2-3--0---3-2-----2-0----3-3-5-------5-3-5-3-----|
Eb|-----------------------------------------------------------------------------------|

2:02-2:33
Gb|--------------------------------------------------------------------------------------------------------------|
Db|--------------------------------------------------------------------------------------------------------------|
Ab|---------------------------333333333333-000000000000-111111111111-555555555555----------5555-222222-----------|
Eb|-333333333333-000000000000-----------------------------------------------------44444444-------------0-1---1-0-|

2:33-3:25
   T    T    T    T    T    T    T    T
Gb|-12p4-12p4-12p4-12p4-12p4-12p4-11p4-11p4-|
Db|-----------------------------------------|
Ab|-----------------------------------------|
Eb|-----------------------------------------|x16

3:25-3:49
Gb|---------------------------11-9-8-------------------------------|
Db|------------------9-8---11--------9-----------------------------|
Ab|----------------------9----------------3333333333333333-5555555-|
Eb|-0000000000000000-----------------------------------------------|x2

3:49-4:04
Gb|-------------------------------------------------------------------------------------------------------|
Db|-------------------------------------------------------------------------------------------------------|
Ab|-----------------------------------------------------------------3333333333333333-6666666--xx-xx-x-x---|
Eb|-0000-00-0000-00-0000-00-0000-00-0000-00-0000-00-0000-00-0000-00-------------------------------------0-|

4:04-4:16
Gb|-9p0-11p0-12p0-|
Db|---------------|
Ab|---------------|
Eb|---------------|x18
comments
print report bad tab
4 comments total. Showing first comments.
0 reply
edthebassist wrote on April 4 2007, 04:59 pm

the tab seems more like playing the guitar parts, but on bass.

0 reply
TheJManSays wrote on August 19 2007, 11:50 pm

Yeah, the tapping part was way off as well.

0 reply
Dorian rulz wrote on October 19 2007, 03:46 pm

i dont know its better than what i would have gotten

I want to post or [tab]
guest
You may want to rate the tab now too:
select rating
Please do not post tabs as comments. Select "correction" instead!