Oops, an error
Loading. Please wait.

Blindfolds Aside Tab

version 1
version 1

Solo

Whole song

Interactive

4,184 views 1 this week
5 commentsread comments
1 2 3 4 5
accurate
x 5
add to favorites
launch autoscroll
font size
0
reset
how to read this tab
guitar tuner
Tab Pro tools
  • play this tab
  • loop segment
  • change instrument
  • show fretboard
  • metronome
Autoscroll
slow
fast
+/-
esc
set tempo
stop
Contributor
Difficulty
advanced
Heres the solo to Blindfolds Aside. I saw this other one, it didn't impress me, so i 
i'd post this. It's right.

E------------------------------------------------------------------|
B------------------------------------------------------------------|
G----------------------------------/12-9v-9--9-0---9-000-10-000----|
D--/10—9v—9---9-9-9h10p9/7-9---------------------------------------|
A----------------------------7-9-10--------------------------------|
E------------------------------------------------------------------|

E------------------------------------------------------------------|
B------------------------------------------------------------------|
G14p12p11h12p11---------------------11(b12r)---9-9-9-9-11-11-11-11-|
D--------------12-10v--10-10-9(b10r)--------12---------------------|
A------------------------------------------------------------------|
E------------------------------------------------------------------|
                                                  sweep
E------------------------------------------------------10h13p10-----|
B-----------10-10-10-10-12-12-12-12-10-10-10-10------11--------11---|
G12-12-12-12---------------------------------------10------------10-|
D------------------------------------------------12-----------------|
A----------------------------------------------13-------------------|
E-------------------------------------------------------------------|

E---------------12-13-12------15-------------------------------------|
B------------15----------13------------------------------------------|
G--10-10--15---------------12----11v---12-12-11-12-14-14-12-14-16-16-|
D--------------------------------------------------------------------|
A--------------------------------------------------------------------|
E--------------------------------------------------------------------|

E----------------------------------------12h13p12—12h13p12h13------|
B-------------------------------------------------------------12vv-|
G14-16-17-17-16-17-19v--19-19--17-17--17---------------------------|
D------------------------------------------------------------------|
A------------------------------------------------------------------|
E------------------------------------------------------------------|

E--------------------------------------------------------------------|
B-12--12-12-12-9v—9-9--9-10—-10p0-12p0-13p0-12p0-13p0-15p0-13p0-15p0-|
G--------------------------------------------------------------------|
D--------------------------------------------------------------------|
A--------------------------------------------------------------------|
E--------------------------------------------------------------------|

E-----------------------------------------------------------------|
B-17p0-15p0-13p0-15p0-12------------------------------------------|
G------------------------13v--13-13/------------------------------|
D-----------------------------------------------------------------|
A-----------------------------------------------------------------|
E-----------------------------------------------------------------|
comments
print report bad tab
5 comments total. Showing first comments.
+1 reply
Jordeeznuts wrote on December 13 2005, 07:28 am

Hey man, good job. Im glad somebody else has an ear.. Just so you know though, its downtuned...but this tab is right for standard tuning

-1 reply
shimon3000 wrote on December 17 2005, 07:12 pm

this is rlly gd but can some1 tab the whole version, and also for the song soft targets make softer graves

-1 reply
Jeffyry wrote on October 17 2006, 12:11 am

i dunno... something about this doesnt seem right... probly the tuning like jordeeznuts said

I want to post or [tab]
guest
You may want to rate the tab now too:
select rating
Please do not post tabs as comments. Select "correction" instead!