Oops, an error
Loading. Please wait.

Blindfolds Aside Tab

version 1
version 1

Whole song

Interactive

23,099 views 21 this week
11 commentsread comments
1 2 3 4 5
accurate
x 16
add to favorites
launch autoscroll
font size
0
reset
how to read this tab
guitar tuner
Autoscroll
slow
fast
+/-
esc
set tempo
stop
Help us to improve Ultimate-Guitar.com Take our survey!
×
Author
Difficulty
advanced
BLINDFOLDS ASIDE
Protest The Hero
KEZIA (2005)

Tabbed by Jordo:

This tab look a long time to do, but I think its pretty much correct. Where two guitars are used,
I've put the parts together, makes it easier for me. Alot of the parts in this song are played by both
guitarists. Any comments or criticms are welcomed and encouraged. Dont forget to downtune! Enjoy

Tune down to C#G#C#F#A#D#
(drop D, then half step down)

LEGEND:
h    hammer on
p    pull off
T    tap
PM   palm mute
n*   pinch harmonic
  natural harmonic
/    slide

LEFT GUITAR
-----------------------------------------------------------------------|
-----------------------------------------------------------------------|
-5-5--5-5-5-5----------------------------------------------------------|
-2-2--2-2-2-2---2--5p0-7p0-4p0-5p0-7p0------2-5p0-7p0-4p0-5p0-7p0------|
-0-0--0-0-0-0---2----------------------6----2---------------------6----|
----------------2---------------------------2--------------------------|

RIGHT GUITAR
-----------------------------------------------------------------------|
-----------------------------------------------------------------------|
-2-2--2-2-2-2----------------------------------------------------------|
-2-2--2-2-2-2--2--9p0-10p0-7p0-9p0----------2-9p0-10p0-7p0-9p0---------|
-0-0--0-0-0-0--2-------------------10p0--6--2------------------10p0-9--|
---------------2----------------------------2--------------------------|

BOTH
--------------------------------------|
-5----------------5----5-5-5-5-5-5----|
-5---------9------5----5-5-5-5-5-5----|
-2---------5------2----2-2-2-2-2-2----|
-0---------6------0----0-0-0-0-0-0----|
--------------------------------------|
                       PM-------------|

----------------------------------------------------|
----------------------------------------------------|
-2---5--7---2---5------2--5-7---2--5----2-2-2-2-----|
-2---5--7---2---5------2--5-7---2--5----2-2-2-2-----|
-0---3--5---0---3------0--3-5---0--3----0-0-0-0-----|
-------------------6~-------------------------------|
                                        PM-----

"we woke up as men...."

repeat once
---------------------------------------------------|
---------------------------------------------------|
--------------------------------2-2-2--------------|
-3--3-3-3-3-----2--2-2-2-2------2-2-2------5-5-5---|
-3--3-3-3-3-----2--2-2-2-2------0-0-0------5-5-5---|
-3--3-3-3-3-----2--2-2-2-2-----------------5-5-5---|
    PM-----        PM------------------------------|

LEFT GUITAR
--------------------------------------------------------|
--------------------------------------------------------|
--------------------2--5--7--2--5----2--5--7------------|
-3-3-3-3--2-2-2-2---2--5--7--2--5----2--5--7------------|
-3-3-3-3--2-2-2-2---0--3--5--0--3----0--3--5----3~------|
-3-3-3-3--2-2-2-2-----------------6~----------------6~--|

RIGHT GUITAR
----------------------------------------------------------|
----------------------------------------------------------|
------------------------2--5--7--2--5----2--5--7----------|
-14-14-14-13-13-16-16---2--5--7--2--5----2--5--7----------|
------------------------0--3--5--0--3----0--3--5--7~------|
-12-12-12-11-11-14-14-----------------6~-------------10~--|

"with a heart thats beating..."
--------------------------------------------------------------|
-------------<5>---------<5>----------------------------------|
-------------<5>---------<5>-----5-5-5-5----------------------|
-2---2---2---<5>----2--2-<5>-----5-5-5-5---7-7-7-7------------|
-2---2---2----------2--2---------3-3-3-3---7-7-7-7------------|
-2---2---2----------2--2-------------------7-7-7-7------------|

"A sin I didn't pay for...."
--------------------------------------------------------------|
--------------------------------------------------------------|
-----------------5-5-5-5-5-------------------5-5-5--7-7-7-----|
-5-5-5-7-7-7-7---5-5-5-5-5---5-5-5-7-7-7-7---5-5-5--7-7-7-----|
-5-5-5-5-5-5-5---3-3-3-3-3---5-5-5-5-5-5-5---3-3-3--5-5-5-----|
-5-5-5-4-4-4-4---------------5-5-5-4-4-4-4--------------------|


(ACOUSTIC GUITAR)
---------------------------------------------|
-7-7-7-7-7-7---7-7-7-7-7-7-7-----------------|
-9-9-9-9-9-9---8-8-8-8-8-8-8-----------------|
-9-9-9-9-9-9---9-9-9-9-9-9-9-----------------|
-0-0-0-0-0-0---0-0-0-0-0-0-0-----------------|
---------------------------------------------|

RIght Guitar just plays power chords
------------------------------------------------------|
----------------------------------------------3-4-5*--|
----------------------------------------2-3-4---------|
-2-2-2---5-4-2-------2---2-2--5-4-2-4-5---------------|
-2-2-2---------5-2-5-----2-2--------------------------|
-2-2-2-------------------2-2--------------------------|

------------------------------------------------------|
---------------------------------------3h5p4p0--------|
--------2------------------------2h4h5----------------|
-2-2-2----5-4-2-4-5-2--2-2-2-4-5----------------------|
-2-2-2-----------------2-2----------------------------|
-2-2-2-----------------2-2----------------------------|


---------------------------------------------------------|
----------------------------------------------3---3h4h5--|
-------2----------------------------2-4p2-4-5---5--------|
-2-2-2---5-4-2-4-5-2-----2-2--2-4-5----------------------|
-2-2-2-------------------2-2-----------------------------|
-2-2-2-------------------2-2-----------------------------|

------------------------------------------------------|
------------------------------------------------------|
-9/11/12--11/12/14---16/14/16---17/16/14--------------|
------------------------------------------------------|
-7/9-/10---9/10/12---14/12/14---15/14/12--------------|
------------------------------------------------------|

--------------------------------------------------3h7p3p0-|
----------------------------------------------3-----------|
------------------------------------2-4p2-4-5---5---------|
-2-2-2---5-4-2-------2---2-2--2-4-5-----------------------|
-2-2-2---------5-2-5-----2-2------------------------------|
-2-2-2-------------------2-2------------------------------|

------------------------------------------------------|
------------------------------------------------------|
-9/11/12--11/12/14---16/14/16---17/16/14--------------|
------------------------------------------------------|
-7/9-/10---9/10/12---14/12/14---15/14/12--------------|
------------------------------------------------------|


"On her....."
LEft Guitar
-------------------------------------------------------------------|
-------------------------------------------------------------------|
-------------------------------------------------------------------|
----------------------7----------------------------------9---------|
-10--9--10--10p9p7-10---10p9p7--10--9-10-10p9h10-12p10h12-12p10----|
----------------------------------------------------------------11-|

Right Guitar
-------------------------------------------------------|
-------------------------------------------------------|
----------------4--------------------------------------|
-9-7-9--5h7p5h7--7p5p4---9-7-9-/10p9h10-12p10h12-8*----|
-------------------------------------------------------|
-------------------------------------------------------|

Both
--------------------------------------------------|
--------------------------------------------------|
--------------------------------------------------|
--------------------------------------------------|
-10-9----7------7-10----7-----7------7-10----7----|
------7----10-9------10---9-7---10-9------10---9--|

--------------------------------------------------------|
--------------------------------------------------------|
--------------------------------------------------------|
--------------------------------------------------------|
---7------7-10----7------7-------------7--------7-------|
-7---10-9------10---9--7---10---7-9-10---7-9-10----10*--|
                                PM----------------------|

Guitar Solo:

-----------------------------/3p0------------------------------------|
------------------------------------7p0-0-8p0-0-10p8p7-8p7-----------|
-/5-4----4-4-4h5p4/2/4-----0-------------------------------7/5-------|
-----------------------2h4-------------------------------------------|
---------------------------------------------------------------------|
---------------------------------------------------------------------|
                   (~~~~~~~~~~~~~~~~~tremelo~~~~~~~~~~~~~~~~~~)
-------2-2b3---------------------------------------------------------|
----------------3--5-5-5-7-7-7-8-8-8-10-10-10-12-12-12-10-10-10------|
-4-4b5---------------------------------------------------------------|
---------------------------------------------------------------------|
---------------------------------------------------------------------|
---------------------------------------------------------------------|

---------10h13p10--------------10-12-13-12-------15------------------|
-------10---------10--------10-------------13------------------------|
-----10--------------10--10-------------------12-----11--------------|
---12----------------------------------------------------------------|
-13------------------------------------------------------------------|
---------------------------------------------------------------------|
*sweep*****

-------------------------------------------------12h13p12-12h13p12-----|
-------------------12-10-12-13-12-13-/15--13--13-------------------12--|
-12-11-12-14-12-14-----------------------------------------------------|
-----------------------------------------------------------------------|
-----------------------------------------------------------------------|
-----------------------------------------------------------------------|

---------------------------------------------------------------------------|
-12/9--9/10-10p0-12p0-10p0-12p0-13p0-12p0-13p0-15p0-17p0-15p0-13p0-15-12/9-|
---------------------------------------------------------------------------|
---------------------------------------------------------------------------|
---------------------------------------------------------------------------|
---------------------------------------------------------------------------|


"slow weird part"
Left Guitar
-3p0---7p0---5p0---8p0---7p0---10p0---8p0---12p0h8p0----------|
--------------------------------------------------------------|
--------------------------------------------------------------|
--------------------------------------------------------------|
--------------------------------------------------------------|
--------------------------------------------------------------|

Right Guitar
 T       T      T      T        T         T
-12p0h3--14p0h3-15p0h3-14p0h3---12p3p0h3--10p3p0h3------------|
--------------------------------------------------------------|
--------------------------------------------------------------|
--------------------------------------------------------------|
--------------------------------------------------------------|
--------------------------------------------------------------|

Left
-3p0---7p0---5p0---8p0---7p0---10p0----12p0h10p0h8p0h7p0------|
--------------------------------------------------------------|
--------------------------------------------------------------|
--------------------------------------------------------------|
--------------------------------------------------------------|
--------------------------------------------------------------|

Right
 T       T      T      T        T    T    T    T
-12p0h3--14p0h3-15p0h3-14p0h3---15p0-14p0-12p0-10p0-----------|
--------------------------------------------------------------|
--------------------------------------------------------------|
--------------------------------------------------------------|
--------------------------------------------------------------|
--------------------------------------------------------------|

Left
-3p0---7p0---5p0---8p0---7p0---10p0---8p0---12p0h8p0----------|
--------------------------------------------------------------|
--------------------------------------------------------------|
--------------------------------------------------------------|
--------------------------------------------------------------|
--------------------------------------------------------------|

Right
 T       T      T      T        T         T
-12p0h3--14p0h3-15p0h3-17p0h3---15p3p0h3--14p3p0h3------------|
--------------------------------------------------------------|
--------------------------------------------------------------|
--------------------------------------------------------------|
--------------------------------------------------------------|
--------------------------------------------------------------|

Left
-3p0---7p0---5p0---8p0---7p0---10p0---12p0h10p0h8p0h7p0--12\--|
--------------------------------------------------------------|
--------------------------------------------------------------|
--------------------------------------------------------------|
--------------------------------------------------------------|
--------------------------------------------------------------|

Right
 T       T      T      T        T    T    T    T    T
-15p0h3--17p0h3-19p0h3-17p0h3---15p0-14p0-12p0-14p0-15--------|
--------------------------------------------------------------|
--------------------------------------------------------------|
--------------------------------------------------------------|
--------------------------------------------------------------|
--------------------------------------------------------------|

WIth the no one's responsible...
----------------|
----------------|
----------------|
-2-2-2-2--------|
-2-2-2-2--------|
-2-2-2-2--------|
PM--------------|

Left Guitar
Her tiny shoes tell lies about....
-----------------------------------------------------------------|
-----------------------------------------------------------------|
------------------5----------7-5----5--7-7-7---------------------|
-2-----0-2------0-5----------7-5----5--7-7-7--9-9-9-9------------|
-2-----0-2------0-3----------5-3----3--5-5-5--6-6-6-6------------|
-2-----0-2------0------------------------------------------------|
                                       PM------------------------|

Right Guitar plays the same tapping pattern played in break

Left Guitar:
                                         last time
----------------------------------------|------------|
----------------------------------------|------------|
-----------------5-5-5-5-5------7-7-----|------------|
-2-2-2---2-2-----5-5-5-5-5------7-7-----|--9-9-9-9---|
-2-2-2---2-2-----3-3-3-3-3------5-5-----|--6-6-6-6---|
-2-2-2-0-2-2----------------------------|------------|

Right Guitar:
repeat this part once.-------------------------------------------------|
------------------------------|----------------------------------------|
------------------------------|----------------------------------------|
-12/11-14/12--16/14--17/16/10-|-12/11/12/14/12/14/16/14/16/17/16/14----|
------------------------------|----------------------------------------|
-10/9--12/10--14/12--15/14/12-|-10/9-/10/12/10/12/14/12/14/15/14/12----|
------------------------------|----------------------------------------|

-------------------------------------------------|
-------------------------------------------------|
-12/11/12/14/12/14/16/14/16/--19-----------------|
-------------------------------------------------|
-10/9-/10/12/10/12/14/12/14/--17-----------------|
-------------------------------------------------|

BOTH
-------------------------------------|
--x-x-----x-x-----x---x--------------|
--x-x-----x-x-----x---x--------------|
--x-x-----x-x-----x---x----2---------|
--x-x-----x-x-----x---x----2---------|
---------------------------2---------|
(claps) listen to song for timing

Left Guitar:
play 18 times
--------------|-----------------------|
--------------|-----------------------|
-9p0-11p0-12--|---------9*------------|
--------------|-----------------------|
--------------|-----------------------|
--------------|-----------------------|

Right GUitar:
play 18 times
--------------|-----------------------|
--------------|-----------------------|
--------------|-----------------------|
-5p0-7p0-9----|-------5*--------------|
--------------|-----------------------|
--------------|-----------------------|

==================ACOUSTIC ENDING============================

Left Guitar (Acoustic)

strum these chords throughout

----------0--0-------------0--0----------------|
----------7--7-------------5--5----------------|
-7--7-----7--7-------------5--5----------------|
-5--5-----7--7-------------5--5----------------|
-5--5-----5--5-------------3--3----------------|
-5--5------------------------------------------|

The Right guitar does a solo in F# major... I tabbed a bit of it, but it's
all fairly repetitive.

solo
----------------------------------------------------7--10--8-|
-------8---8-8-7-8--8--7---7------------8p7--7-8-10----------|
---7h9-------------------9---9-7-----7h9---9-----------------|
----------------------------------7h9------------------------|
-------------------------------------------------------------|
-------------------------------------------------------------|

--6h7------------6h7--------------6h7----------------|
------8p7h8-8-8------8p7h8--8--8------8p7h8----------|
-----------------------------------------------------|
-----------------------------------------------------|
-----------------------------------------------------|
-----------------------------------------------------|

-7h8h10p8p7----7----------------------7--10----------|
------------10---10p8p7-8p7---7-8-10-----------------|
----------------------------9------------------------|
-----------------------------------------------------|
-----------------------------------------------------|
-----------------------------------------------------|

-10---10-7-10-10h12-10--10-10--10-7-10-10h12--10-10--|
-----------------------------------------------------|
-----------------------------------------------------|
-----------------------------------------------------|
-----------------------------------------------------|
-----------------------------------------------------|

-7h8h10p8p7----7--------------------------------|
------------10---10p8p7-8p7---7-----------------|
----------------------------9---9-9-7-----------|
--------------------------------------10-9------|
------------------------------------------------|
------------------------------------------------|

------------------------------------------------|
------------------------------------------------|
------------------------------------------------|
-9-9-9--9h10-9--7-7--9-9-9-9h10-9--7-7----------|
------------------------------------------------|
------------------------------------------------|

-----------------------------------------------------|
-----------------------------------------------------|
-----------------------------------------------------|
-10-10-10--------------------------------------------|
----------7-7-7--9-9-9--10-10-10/12--10---10---10-10-|
-----------------------------------------------------|


-----------------------------------------------------------|
---------------------------7h8h10p8p7--7h8p7---------------|
---------------7---9---7-------------9------9-7------------|
--------7h9h10----------------------------------10-9-7-10--|
-7h9h10----------------------------------------------------|
-----------------------------------------------------------|
Suggest correction
comments
print report bad tab
11 comments total. Showing first comments.
0 reply
tfk011 22 wrote on January 11 2006, 03:26 pm

Good tab man most of it seems good its probably not the way they actually play it but it sounds good must a taken you a long time and i give you credit for adding the acoustic part at the end.

0 reply
sixxslayer 31 wrote on January 11 2006, 08:53 pm

good job dude, it looks damn good so far
thanks a lot bro, you gotta finish no stars now and umm....the end of turn soonest im stuck where I am

0 reply
guitar_master6 28 wrote on January 14 2006, 12:16 pm

pretty good tab it looks awesome

guest
You may want to rate the tab now too:
select rating
Please do not post tabs as comments. Select "correction" instead!