Oops, an error
Loading. Please wait.

Bloodmeat Bass Tab

version 1
version 1

Whole song

21,746 views 30 this week
7 commentsread comments
1 2 3 4 5
accurate
x 4
add to favorites
launch autoscroll
font size
0
reset
guitar tuner
Autoscroll
slow
fast
+/-
esc
set tempo
stop
Help us to improve Ultimate-Guitar.com Take our survey!
×
Contributor
corrda00 3,069
Tabbed by: Daniel Corrigan

Intro
Gb|-----------------|------------------|
Db|-----------------|------------------|X2
Ab|-----------------|------------------|
Eb|-0-0-00-0-0-0-00-|-0-0-00-0-0-0-000-|
 
Gb|--------|---------|
Db|--------|---------|
Ab|--------|---------|
Eb|-0----0-|-0-----0-|

Gb|-----------------|------------------|
Db|-----------------|------------------|
Ab|-----------------|------------------|
Eb|-0-0-00-0-0-0-00-|-0-0-00-0-0-0-000-|
 
Gb|------------------|
Db|------------------|
Ab|------------------|X2
Eb|--0-00------------|

Verse
Gb|---------------------------|------------------------------|
Db|---------------------------|------------------------------|
Ab|-----5-7--------0-1--0-1-2-|-----5-7--------------2--0----|X2
Eb|--0-------0-3-5------------|--0-------0-3--5--3-0-------3-|

Gb|---------------------------|
Db|---------------------------|
Ab|---------------------------|
Eb|--3--000-000--3--000-000---|

Gb|---------------------------|------------------------------|
Db|---------------------------|------------------------------|
Ab|-----5-7--------0-1--0-1-2-|-----5-7--------------2--0----|X2
Eb|--0-------0-3-5------------|--0-------0-3--5--3-0-------3-|

Gb|---------------------|-----------|--------------|---------------|
Db|---------------------|-----------|--------------|-----------5---|
Ab|---------------------|-----------|-5—-6—-7—-10--|---------------|
Eb|--3--000-000-000—-3--|--0—-000-0-|--------------|-0—0-0-0-0-0-0-|

Bass solo
Gb|-------12------------—---14-12--------|
Db|-----------------14-----------14-12---|
Ab|-12-10-----12-10----12-14-------------|
Eb|--------------------------------------|
 
Gb|---------------|
Db|-----------5---|
Ab|---------------|X4
Eb|-0—0-0-0-0---0-|

Chorus
Gb|-----------------|---------------|
Db|-----------------|---------------|
Ab|-----------------|---------------|
Eb|-5-5-5-5-5-5-5-5-|-5-5-5-5-5-5-5-|

Gb|-----------------|-----------------|
Db|-----------------|-----------------|
Ab|-----------------|-----------------|
Eb|-3-3-3-3-3-3-3-3-|-3-3-3-3-3-3-3-3-|

Gb|-----------------|-----------------|
Db|-----------------|-----------------|
Ab|-----------------|-----------------|
Eb|-1-1-1-1-1-1-1-1-|-1-1-1-1-1-1-1-1-|

Gb|-----------------|-----------------|
Db|-----------------|-----------------|
Ab|-3-3-3-3-3-3-3-3-|-----------------|
Eb|-----------------|-3-3-3-3-3-3-3-3-|

Bridge1
Gb|-----------------|---------------|
Db|-----------------|---------------|
Ab|-----------------|---------------|X2
Eb|-5—-5—-5-5-5-6---|-5--5—-5-5-5-3-|

Bridge2
Gb|---------------------|-----------------------|
Db|---------------------|-----------------------|
Ab|---------------------|-----------------------|X2
Eb|-0—-0---0---0—-0-0-0-|-0—-0---0---0—-0-0-0-0-|

(intro riff)
Gb|-----------------|
Db|-----------------|
Ab|-----------------|
Eb|-0-0-00-0-0-0-00-|

Bridge2
Gb|---------------------|-----------------------|
Db|---------------------|-----------------------|
Ab|---------------------|-----------------------|X2
Eb|-0—-0---0---0—-0-0-0-|-0—-0---0---0—-0-0-0-0-|

(inrto riff)
Gb|-----------------|------------------|
Db|-----------------|------------------|
Ab|-----------------|------------------|
Eb|-0-0-00-0-0-0-00-|-0-0-00-0-0-0-000-|

Gb|--------|---------|
Db|--------|---------|
Ab|--------|---------|
Eb|-0----0-|-0-----0-|

Gb|------------------|
Db|------------------|
Ab|------------7b----|
Eb|--0-00-0-0--------|

Verse
Gb|---------------------------|------------------------------|
Db|---------------------------|------------------------------|
Ab|-----5-7--------0-1--0-1-2-|-----5-7--------------2--0----|X2
Eb|--0-------0-3-5------------|--0-------0-3--5--3-0-------3-|

Bridge3
Gb|----------------|---------------|----------------|-----------------|
Db|----------------|---------------|----------------|-----------------|
Ab|-5---5-55---5---|-5---5---------|-5---5-55---5---|-5---5-----------|X2
Eb|---4------4---4-|---4-----------|---4------4---4-|---4---12\-------|

Gb|-----------------|
Db|-----------------|
Ab|-----------------|
Eb|-5-5-5-5-5-5-5-5-|

Chorus Varriation X2
Gb|-----------7h9p7---------|-----------7h9p7---------|
Db|-------5h9-------9p5-----|-------5h9-------9p5-----|
Ab|-----5---------------5---|-----5---------------5---|
Eb|-3h7-------------------7-|-3h7-------------------7-|
      T     T   T   T           T     T   T   T

Gb|------------8h10p8----------|------------8h10p8----------|
Db|-------6h10--------10p6-----|-------6h10--------10p6-----|
Ab|-----6------------------6---|-----6------------------6---|
Eb|-4h8----------------------8-|-4h8----------------------8-|
      T     T     T   T           T     T    T    T

Gb|-------------10h12p10-----------|-------------10h12p10-----------|
Db|--------8h12----------12p8------|--------8h12----------12p8------|
Ab|------8--------------------8----|------8--------------------8----|
Eb|-6h10------------------------10-|-6h10------------------------10-|
      T     T     T       T    

Gb|--------------------------|-12p10p9--9------------------|
Db|-0h2h3-2h3h5-3h5h7-7h8h10-|--------12---12p10p9---------|
Ab|--------------------------|---------------------12p10---|
Eb|--------------------------|--------------------------12-|

"tomorrow"
Gb|-----------------------|-----------------------|
Db|-----------------------|-----------------------|
Ab|---------23---------23-|---------23---------23-|
Eb|-1-1-1-1----5-5-5-5----|-3-3-3-3----3-3-3-3----|

Outro verseX2
Gb|-------------------|-------------------|
Db|-------------------|-------------------|
Ab|-------------------|-3-3-3-3-3-3-3-3-3-|
Eb|-1-1-1-1-1-1-1-1-1-|-------------------|

Gb|-------------------|---------------|
Db|-------------------|---------------|
Ab|-------------------|---------------|
Eb|-3-3-3-3-3-3-3-3-3-|-3-3-3-3-3-3-3-|

Outro verse2
Gb|-------------------|----------0-4-5-4---|
Db|---------0-2-3-2---|-0-2-3-2----------3-|
Ab|-0-2-3-2---------3-|--------------------|
Eb|-------------------|--------------------|

Gb|-------------------|---------------|
Db|-------------------|---------------|
Ab|-------------------|---------------|X2
Eb|-3-3-3-3-3-3-3-3-3-|-3-3-3-3-3-3-3-|

Outro (half time)
Gb|-------------------------|--------------------------|
Db|-------------------------|--------------------------|
Ab|---5-7-----------1-0-2-0-|---5-7-----------2-0------|X2
Eb|-0-----0-3-5-0-6---------|-0-----0-3-5-0-6-----3--0-|

Legend
| /  slide up
| \  slide down
| h  hammer-on
| p  pull-off
| b  bend
| ~  vibrato
| +  harmonic
| x  Mute note
| T  Tapped note
comments
print report bad tab
7 comments total. Showing first comments. show 1 bad comment
+2 reply
TheJManSays 226 wrote on April 17 2008, 12:01 am

Pretty wrong, no offense. Tapping part is way off and I'm pretty sure the opening riff should be harmonized a third down.

+1 reply
Farny 82 wrote on June 20 2008, 01:33 pm

they still are using a down tuned 5 string though, still just in half step down

I want to post or [tab]
guest
You may want to rate the tab now too:
select rating
Please do not post tabs as comments. Select "correction" instead!