Oops, an error
Loading. Please wait.

Bloodmeat Tab

version 1
version 1
1,755 views 1 this week
no commentswrite comment
1 2 3 4 5
please rate
add to favorites
launch autoscroll
font size
0
reset
how to read this tab
guitar tuner
Tab Pro tools
  • play this tab
  • loop segment
  • change instrument
  • show fretboard
  • metronome
×
Best way to learn
"Bloodmeat"
Autoscroll
slow
fast
+/-
esc
set tempo
stop
Contributor
Difficulty
Tuning
advanced
D# G# C# F# A# D#
-------------------------------------------------------------------------------
			     BLOODMEAT - Protest the Hero
-------------------------------------------------------------------------------
Tabbed by: Cody Hockenberry
Email: magrodydog@yahoo.com

Tuning: Luke and Tim- Eb Ab Db Gb Bb eb
	Arif- Bb Eb Ab Db Gb

These are the tapping parts to Protest's song Bloodmeat, from their Album
"Fortress" The other tab was good, but I'm a very picky person. Feel free
to msg or email with any questions.

Palm mutes indicated above staff, marked with a period (.)
"h" indicates a left hand hammer on/tap, while "t" is a right hand tap

Tuning is one half step down


   .
e|--------------------------------------------------------------------------|
B|--------------------------------------------------------------------------|
G|-----------------------------Rest-2-Measures------------------------------|
D|-2---------------------(see-track-2-"Tim Millar")-------------------------|
A|-2------------------------------------------------------------------------|
E|-0------------------------------------------------------------------------|

e|--------------------------------------------------------h8h10t12----------|
B|-------------h8h10t12---------------------------h8h10t12-------h8h10t12/13|
G|-----t12p9h11--------h9---t12p8--t11----t12p9h11--------------------------|
D|---h9------------------h10-----h9-----h9----------------------------------|
A|-h7---------------------------------h7------------------------------------|
E|--------------------------------------------------------------------------|

e|--------------------------------------------------------h8h10t12----------|
B|-------------h8h10t12---------------------------h8h10t12-------h8h10t12/13|
G|-----t12p9h11--------h9---t12p8--t11----t12p9h11--------------------------|
D|---h9------------------h10-----h9-----h9----------------------------------|
A|-h7---------------------------------h7------------------------------------|
E|--------------------------------------------------------------------------|

e|--------------------------------------------------------------------------|
B|--------------------------------------------------------------------------|
G|-15--15--15-15--15--15--15-15-15-15---------------------------------------|
D|-x---x---x--x---x---x---x--x--x--x----------------------------------------|
A|-12--12--12-12--12--12--12-12-12-12---------------------------------------|
E|--------------------------------------------------------------------------|

e|--------------------------------------------------------h8h10t12----------|
B|-------------h8h10t12---------------------------h8h10t12-------h8h10t12/13|
G|-----t12p9h11--------h9---t12p8--t11----t12p9h11--------------------------|
D|---h9------------------h10-----h9-----h9----------------------------------|
A|-h7---------------------------------h7------------------------------------|
E|--------------------------------------------------------------------------|

e|--------------------------------------------------------h8h10t12----------|
B|-------------h8h10t12---------------------------h8h10t12------ h8h10t12/13|
G|-----t12p9h11--------h9---t12p8--t11----t12p9h11--------------------------|
D|---h9------------------h10-----h9-----h9----------------------------------|
A|-h7---------------------------------h7------------------------------------|
E|--------------------------------------------------------------------------|

e|--------------------------------------------------------------------------|
B|--------------------------------------------------------------------------|
G|-15--15--15-15--15--15--15--15-15--15--15--15-15--15--15--15--15-15-15----|
D|-x---x---x--x---x---x---x---x--x---x---x---x--x---x---x---x---x--x--x-----|
A|-12--12--12-12--12--12--12--12-12--12--12--12-12--12--12--12--12-12-12----|
E|--------------------------------------------------------------------------|


Track 2: Tim Millar

e|--------------------------------------------------------------------------|
B|--------------------------------------------------------------------------|
G|--------t17------t16p12---t19p12---t21p12---t17/19------------------------|
D|-----h14------h12------h14------h14------h14------------------------------|
A|--h12------h10------------------------------------------------------------|
E|--------------------------------------------------------------------------|


e|--------------------------------------------------------------------------|
B|--------------------------------------------------------------------------|
G|--------t17------t16p12---t19p12---t21p12---t17/19------------------------|
D|-----h14------h12------h14------h14------h14------------------------------|
A|--h12------h10------------------------------------------------------------|
E|--------------------------------------------------------------------------|
   .  .  .  .  . . .  .  .  .  .  . . . .
e|--------------------------------------------------------------------------|
B|--------------------------------------------------------------------------|
G|--------------------------------------------------------------------------|
D|-2--2--2--2--2-2-2--2--2--2--2--2-2-2-2-----------------------------------|
A|-2--2--2--2--2-2-2--2--2--2--2--2-2-2-2-----------------------------------|
E|-0--0--0--0--0-0-0--0--0--0--0--0-0-0-0-----------------------------------|
   .  .  .  .  . . .  .  .  .  .  . . . .
e|--------------------------------------------------------------------------|
B|--------------------------------------------------------------------------|
G|--------------------------------------------------------------------------|
D|-2--2--2--2--2-2-2--2--2--2--2--2-2-2-2-----------------------------------|
A|-2--2--2--2--2-2-2--2--2--2--2--2-2-2-2-----------------------------------|
E|-0--0--0--0--0-0-0--0--0--0--0--0-0-0-0-----------------------------------|

e|--------------------------------------------------------------------------|
B|--------------------------------------------------------------------------|
G|-15--15--15-15--15--15--15--15-15-15--------------------------------------|
D|-14--14--14-14--14--14--14--14-14-14--------------------------------------|
A|-12--12--12-12--12--12--12--12-12-12--------------------------------------|
E|--------------------------------------------------------------------------|

   .  .  .  .  . . .  .  .  .  .  . . . .
e|--------------------------------------------------------------------------|
B|--------------------------------------------------------------------------|
G|--------------------------------------------------------------------------|
D|-2--2--2--2--2-2-2--2--2--2--2--2-2-2-2-----------------------------------|
A|-2--2--2--2--2-2-2--2--2--2--2--2-2-2-2-----------------------------------|
E|-0--0--0--0--0-0-0--0--0--0--0--0-0-0-0-----------------------------------|
   .  .  .  .  . . .  .  .  .  .  . . . .
e|--------------------------------------------------------------------------|
B|--------------------------------------------------------------------------|
G|--------------------------------------------------------------------------|
D|-2--2--2--2--2-2-2--2--2--2--2--2-2-2-2-----------------------------------|
A|-2--2--2--2--2-2-2--2--2--2--2--2-2-2-2-----------------------------------|
E|-0--0--0--0--0-0-0--0--0--0--0--0-0-0-0-----------------------------------|

e|--------------------------------------------------------------------------|
B|--------------------------------------------------------------------------|
G|-15--15--15-15--15--15--15--15-15--15--15--15-15--15--15--15--15-15-15----|
D|-14--14--14-14--14--14--14--14-14--14--14--14-14--14--14--14--14-14-14----|
A|-12--12--12-12--12--12--12--12-12--12--12--12-12--12--12--12--12-12-12----|
E|--------------------------------------------------------------------------|


Track 3: Arif Mirabdolbaghi

G|--------------------------------------------------------------------------|
D|---------------------------Rest-2-measures--------------------------------|
A|---------------------(see-track-2-"Time-Millar")--------------------------|
E|-0------------------------------------------------------------------------|
B|--------------------------------------------------------------------------|

G|--------------------------------------------------------------------------|
D|--------------------------------------------------------------------------|
A|--------------------------------------------------------------------------|
E|-0--0--0--0--0-0-0--0--0--0--0--0-0-0-0-----------------------------------|
B|--------------------------------------------------------------------------|

G|--------------------------------------------------------------------------|
D|--------------------------------------------------------------------------|
A|--------------------------------------------------------------------------|
E|-0--0--0--0--0-0-0--0--0--0--0--0-0-0-0-----------------------------------|
B|--------------------------------------------------------------------------|

G|--------------------------------------------------------------------------|
D|--------------------------------------------------------------------------|
A|--------------------------------------------------------------------------|
E|-0--0--0-0--0--0--0--0-0-0------------------------------------------------|
B|--------------------------------------------------------------------------|

G|--------------------------------------------------------------------------|
D|--------------------------------------------------------------------------|
A|--------------------------------------------------------------------------|
E|-0--0--0--0--0-0-0--0--0--0--0--0-0-0-0-----------------------------------|
B|--------------------------------------------------------------------------|

G|--------------------------------------------------------------------------|
D|--------------------------------------------------------------------------|
A|--------------------------------------------------------------------------|
E|-0--0--0--0--0-0-0--0--0--0--0--0-0-0-0-----------------------------------|
B|--------------------------------------------------------------------------|

G|--------------------------------------------------------------------------|
D|--------------------------------------------------------------------------|
A|--------------------------------------------------------------------------|
E|-0--0--0-0--0--0--0--0-0--0--0--0-0--0--0--0--0-0-0-----------------------|
B|--------------------------------------------------------------------------|

| /  slide up
| \  slide down
| h  hammer-on
| p  pull-off
| ~  vibrato
| +  harmonic
| x  Mute note
===============================================================================
comments
We did not receive enough feedback on this tab! Please rate:
print report bad tab
1 2 3 4 5
I want to post or [tab]
guest
You may want to rate the tab now too:
select rating
Please do not post tabs as comments. Select "correction" instead!