Oops, an error
Loading. Please wait.

Bloodmeat Tab

version 2
version 2
4,880 views 1 this week
5 commentsread comments
1 2 3 4 5
worth learning
x 3
add to favorites
launch autoscroll
font size
0
reset
how to read this tab
guitar tuner
Tab Pro tools
  • play this tab
  • loop segment
  • change instrument
  • show fretboard
  • metronome
Autoscroll
slow
fast
+/-
esc
set tempo
stop
Difficulty
intermediate
Guitar I (Eb Ab Db Gb Bb Eb)

 
INTRO
                                    
Guitar I
        S S    S  S   S    S  S    S  S    S  S   S  S     S      S
||----------------------------------------------------------------|
||o--11-----11-----11---11------11------11-----11-------11-----11-|
||----9------9------9----9-------9-------9------9--------9------9-|
||----7------7------7----7-------7-------7------7--------7------7-|
||o---------------------------------------------------------------|
||----------------------------------------------------------------|


 4/4
    S  S    S S   S    S  S   S  S   S  S   S S    S     S     S
|---------------------------------------------------------------------||
|--11------11----11---11-----11-----11-----11-----11----11----11-----o||   
|---9-------9-----9----9------9------9------9------9-----9-----9------||   
|---7-------7-----7----7------7------7------7------7-----7-----7------||   
|--------------------------------------------------------------------o||  
|---------------------------------------------------------------------||  

This chord could also be 

|----|
|----|
|-15-|
|-14-|
|-12-|
|----|




                  |--3--|     |-3--|
  E  E   S  S E   S  S  S S S S  S S  S S
|-----------------------------------------|
|-----------------------------------------|
|-----------------------------------------|
|-----------------------------------------|
|---14--14-12----13-16-13-9---9-12-9------|
|-0----------------------------------12-0-|



                    |--3--|      |--3--|
  +E   E   S  S E   S  S  S S S  S  S  S  S
|--------------------------------------------|
|--------------------------------------------|
|--------------------------------------------|
|-------------------------------11-14-11-----|
|-----14--14-12----13-16-13-9------------13--|
|-(0)----------------------------------------|


   S S  S S  S  S S  S S  S S  S S  S  S  S
|-------------------------------------------|
|-11---11---11-11---11---11---11---11-11-11-|
|--9----9----9--9----9----9----9----9--9--9-|
|--7----7----7--7----7----7----7----7--7--7-|
|-------------------------------------------|
|-------------------------------------------|


  S  S S  S  S S  S S  S S  S S  S  S  S
|-------------------------------------------|
|---11---11-11---11---11---11---11-11-11----|
|----9----9--9----9----9----9----9--9--9----|
|----7----7--7----7----7----7----7--7--7----|
|-------------------------------------------|
|-------------------------------------------|


                |--3--|     |-3--|
  E  E  S  S E  S  S  S S S S  S S  S S
|---------------------------------------|
|---------------------------------------|
|---------------------------------------|
|---------------------------------------|
|---14-14-12---13-16-13-9---9-12-9------|
|-0--------------------------------12-0-|


                  |--3--|      |--3--|
  +E   E  S  S E  S  S  S S S  S  S  S  S S
|----------------------------------------------|
|----------------------------------------------|
|----------------------------------------------|
|-----------------------------11-14-11---------|
|-----14-14-12---13-16-13-9------------13------|
|-(0)-------------------------------------0----|


                  |--3--|     |-3--|
  +E   E  S  S E  S  S  S S S S  S S  S S
|-----------------------------------------|
|-----------------------------------------|
|-----------------------------------------|
|-----------------------------------------|
|-----14-14-12---13-16-13-9---9-12-9------|
|-(0)--------------------------------12-0-|


                  |--3--|      |--3--|
  +E   E  S  S E  S  S  S S S  S  S  S  S S
|----------------------------------------------|
|----------------------------------------------|
|----------------------------------------------|
|-----------------------------11-14-11---------|
|-----14-14-12---13-16-13-9------------13------|
|-(0)-------------------------------------0----|


Part Right Before Intro (Guitar 2 does other part)


  Q     S S H.                 Q  S S H.
|----------------------------|--------------|
|----------------------------|--------------|
|----------------------------|--------------|
|----------------------------|--------------|
|-2-----2-2------------------|-2--2-2-------|
|-0-----0-0------------------|-0--0-0-------|

Verse
Enemies of Khanate strung on hooks like pigs to slaughter

  E  S E S E E S S S S S S     E S E  S E E S S E S S
|----------------------------|---------------------------|
|----------------------------|---------------------------|
|----------------------------|---------------------------|
|----0h2---------------------|---0h2---------------------|
|---------------1-0-1-0-1-2--|------------0-----2-0------|
|-0------0-3-5---------------|-0------0-3---3-0-----3----|


  E S E S E E S S S S S S      E S E S E E S S E S S
|----------------------------|--------------------------|
|----------------------------|--------------------------|
|----------------------------|--------------------------|
|---0h2----------------------|---0-2--------------------|
|-------------1-0-1-0-1-2----|-----------0-----2-0------|
|-0-----0-3-5----------------|-0-----0-3---3-0-----3----|


HEADS WILL ROLLL!!!!

    |-3-|   |-3-|             |-3-|   |-3-|
  E S S S S S S S       S   E S S S S S S S S
|-------------------------|----------------------|
|-------------------------|----------------------|
|-------------------------|----------------------|
|-5---------2-------------|-5---------2----------|
|-5-2-2-2---2-2-2---------|-5-2-2-2---2-2-2------|
|-3-0-0-0---0-0-0---------|-3-0-0-0---0-0-0------|


Heads will roll, throats will be slit and blood will flow like springs of water

  E S E S E E S S S S S S      E S E S E E S S E S S
|----------------------------|--------------------------|
|----------------------------|--------------------------|
|----------------------------|--------------------------|
|---0h2----------------------|---0-2--------------------|
|--------------1-0-1-0-1-2---|-----------0-----2-0------|
|-0-----0-3-5----------------|-0-----0-3---3-0-----3----|


  E S E S E E S S S S S S      E S E S E E S S E S S
|----------------------------|--------------------------|
|----------------------------|--------------------------|
|----------------------------|--------------------------|
|---0h2----------------------|---0-2--------------------|
|-------------1-0-1-0-1-2----|-----------0-----2-0------|
|-0-----0-3-5----------------|-0-----0-3---3-0-----3----|

HEADSSS WILLL ROOLLLLL


    |-3-|   |-3-|   |-3-|
  E S S S S S S S S S S S S E    S T T T T T T  S E S E
|------------------------------|---------------------------|
|------------------------------|---------------------------|
|------------------------------|---------------------------|
|-5-------------------------5--|-2-------------------------|
|-5-2-2-2---2-2-2---2-2-2---5--|-2-2-2-2-2-2-2--2---2------|
|-3-0-0-0---0-0-0---0-0-0---3--|-0-0-0-0-0-0-0--0---0------|


  S S S S E E  E  E    
|--------------------|
|--------------------|
|-7---8---9---12-----|
|-6---7---8---11-----|
|-5---6---7---10-----|
|--------------------|

To the River Red, across the ochre steppe

  S Q  S S E. S S Q    
|--------------------|X6
|--------------------|
|-----------------5--|
|-2-----------2------|
|-2------2----2-2-3--|
|-0------0----0-0----|


        A Thousand

   E  E  E  E   E  E  E  E
|-----------------------------|
|-----------------------------|
|-17-17-17-17--14-14-14-14----|
|-----------------------------|
|-15-15-15-15--12-12-12-12----|
|-----------------------------|

  Fathers killed                  A thousand Virgin

   E  E  E  E   E  E   E  E     E  E  E  E   E  E  E  E
|----------------------------|--------------------------|
|----------------------------|--------------------------|
|-17-17-17-17--14-14--19-19--|-16-16-16-16--12-12-12-12-|
|----------------------------|--------------------------|
|-15-15-15-15--12-12--17-17--|-14-14-14-14--10-10-10-10-|
|----------------------------|--------------------------|

    Daughters Spread

   E  E  E  E   E  E   E  E
|------------------------------|
|------------------------------|
|-16-16-16-16--12-12--17-17----|
|------------------------------|
|-14-14-14-14--10-10--15-15----|
|------------------------------|

     with swords still wet, with swords still wet
   E  E  E  E  E  E  E  E    E  E  E  E  E  E  E  E
|-------------------------|-------------------------|
|-------------------------|-------------------------|
|-14-14-14-14-10-10-10-10-|-14-14-14-14-10-10-10-10-|
|-------------------------|-------------------------|
|-12-12-12-12--8--8--8--8-|-12-12-12-12--8--8--8--8-|
|-------------------------|-------------------------|


  WITH THE BLOOD    OF THEIR DEAD!!!
  
  E E E E E E E E    E  E  E  E  E  E  E  E
|-----------------|-------------------------|
|-----------------|-------------------------|
|-9-9-9-9-9-9-9-9-|-16-16-16-16-16-16-16-16-|
|-----------------|-------------------------|
|-7-7-7-7-7-7-7-7-|-14-14-14-14-14-14-14-14-|
|-----------------|-------------------------|

 Nurjan is upon us, he kills in silence after prayers" part

     S  S  S  S  S  S  S  S  S  S  S  S  S  S  S   
||--------------------------------------17-------|
||o-------14-15-18-15-14----------14-15----15-14-|
||--14-15----------------15-14-15----------------|
||-----------------------------------------------|
||o----------------------------------------------|
||-----------------------------------------------|

  S  S  S  S  S  S  S  S  S  S  S  S  S  S  S  S  S
|----------------18-17-15-----------------------------||
|----------14-15----------18-17-15-14----------------o||
|-15-14-15----------------------------15-14----14-15--||
|-------------------------------------------17--------||
|----------------------------------------------------o||
|-----------------------------------------------------||


Tapping part 1

      T      T        T        T       T
  S S  S S S  S S S  S S S  S S S  S  S
|--------------------------------------------|
|-----13-----12--8p5--15--5h8--17--8p5-13s15-|
|---9----------------------------------------|
|-7------5-5---------------------------------|
|--------------------------------------------|
|--------------------------------------------|


      T      T        T        T       T
  S S  S S S  S S S  S S S  S S S  S  S
|--------------------------------------------|
|-----13-----12--8p5--15--5h8--17--8p5-13s15-|
|---9----------------------------------------|
|-7------5-5---------------------------------|
|--------------------------------------------|
|--------------------------------------------|


"Genghis Khan is upon us, and he slays his betrayers" Part

         T      T       T       T      T
  S S  S S S  S S  S  S S  S  S S S  E
||-----------------------------------------|
||o----------------8-10-12-0---------------|
||-------12-7-9-11--------------12-0---11--|
||-----9---------------------10------9-----|
||o--7-------------------------------------|
||-----------------------------------------|

      T      T       T       T       T

  S S  S S S  S S  S  S S  S  S S  S  S  S
|-----------------------8-10-12--------------||
|---------------8-10-12---------8-10-12s13--o||
|-----12-7-9-11------------------------------||
|---9----------------------------------------||
|-7-----------------------------------------o||
|--------------------------------------------||

The "DA DA DADA DA DA DA DADADA" Chord (I'm too lazy to make the rhythm and stuff =P)
Is
|----|       |----|
|----|       |-11-|
|-15-|  OR   |-9--|
|-14-|       |-7--|
|-12-|       |----|
|----|       |----|




                |--3--|     |-3--|
  E  E  S  S E  S  S  S S S S  S S  S S
|---------------------------------------|
|---------------------------------------|
|---------------------------------------|
|---------------------------------------|
|---14-14-12---13-16-13-9---9-12-9------|
|-0--------------------------------12-0-|


                  |--3--|      |--3--|
  +E   E  S  S E  S  S  S S S  S  S  S  S S
|----------------------------------------------|
|----------------------------------------------|
|----------------------------------------------|
|-----------------------------11-14-11---------|
|-----14-14-12---13-16-13-9------------13------|
|-(0)-------------------------------------0----|


                  |--3--|     |-3--|
  +E   E  S  S E  S  S  S S S S  S S  S S
|-----------------------------------------|
|-----------------------------------------|
|-----------------------------------------|
|-----------------------------------------|
|-----14-14-12---13-16-13-9---9-12-9------|
|-(0)--------------------------------12-0-|


                  |--3--|      |--3--|
  +E   E  S  S E  S  S  S S S  S  S  S  S S
|----------------------------------------------|
|----------------------------------------------|
|----------------------------------------------|
|-----------------------------11-14-11---------|
|-----14-14-12---13-16-13-9------------13------|
|-(0)-------------------------------------0----|



| E  S E  S S S  H
|------------------------|
|------------------------|
|------------------------|
|------------------------|
|----5s7-----------------|
|-0-------3-5-3-[3]B-----|



Thus now the fools of God will guard the city of our birth

  E  S E S E E S S S S S S     E S E  S E E S S E S S
|----------------------------|---------------------------|
|----------------------------|---------------------------|
|----------------------------|---------------------------|
|----0h2---------------------|---0h2---------------------|
|---------------1-0-1-0-1-2--|------------0-----2-0------|
|-0------0-3-5---------------|-0------0-3---3-0-----3----|



 Hold an ear to the ground                               YEEEEEEEEEAAAAAAA

  E  S E S E E S S S S S S     E S E  S E E S S E S S
|----------------------------|---------------------------|
|----------------------------|---------------------------|
|----------------------------|---------------------------|
|----0h2---------------------|---0h2---------------------|
|---------------1-0-1-0-1-2--|------------0-----2-0------|
|-0------0-3-5---------------|-0------0-3---3-0-----3----|


                                            T            T
                                            |----3----|  |----3----|
    E  E  S S S S E  E  E  E   E  E  S E.   S S S S S S  S S S S S S
|----------------------------|---------------------------------------|
|----------------------------|---------------------------------------|
|---7-------7---7-7-----7----|-7-------7---13p8p7p5h7h8-13p8p7p5h7h8-|
|---7--6----7---7-7--6--7--6-|-7--6----7-----------------------------|
|---5--6----5---5-5--6--5--6-|-5--6----5-----------------------------|
|------4-------------4-----4-|----4----------------------------------|



     To hear the sound

  E  E  S S S S E  E  E  E   E  E  S E.
|--------------------------|---------------|
|--------------------------|---------------|
|-7-------7---7-7-----7----|-7-------7-----|
|-7--6----7---7-7--6--7--6-|-7--6----7-----|
|-5--6----5---5-5--6--5--6-|-5--6----5-----|
|----4-------------4-----4-|----4----------|

   T         T               T         T         T                T
   |---------------3----------------|  |----------------3----------------|
   S  S S S  S  S  S  S S S  S  S S S  S  S S S  S  S  S  S S S   S  S S S

|-15p10p8p7-15s17s15-10p8p7-----------15p10p8p7-15s17s15-10p8p7------------|
|---------------------------15p10p8p7----------------------------15p10p8p7-|
|--------------------------------------------------------------------------|
|--------------------------------------------------------------------------|
|--------------------------------------------------------------------------|
|--------------------------------------------------------------------------|


Clamoring and horses stammering 
                                            T            T
                                            |----3----|  |----3----|
    E  E  S S S S E  E  E  E   E  E  S E.   S S S S S S  S S S S S S
|----------------------------|---------------------------------------|
|----------------------------|---------------------------------------|
|---7-------7---7-7-----7----|-7-------7---13p8p7p5h7h8-13p8p7p5h7h8-|
|---7--6----7---7-7--6--7--6-|-7--6----7-----------------------------|
|---5--6----5---5-5--6--5--6-|-5--6----5-----------------------------|
|------4-------------4-----4-|----4----------------------------------|



  As their gallop meets the earth

  E  E  S S S S E  E  E  E   E  E  S E.
|--------------------------|---------------|
|--------------------------|---------------|
|-7-------7---7-7-----7----|-7-------7-----|
|-7--6----7---7-7--6--7--6-|-7--6----7-----|
|-5--6----5---5-5--6--5--6-|-5--6----5-----|
|----4-------------4-----4-|----4----------|

   T         T               T         T         T                T
   |---------------3----------------|  |----------------3----------------|
   S  S S S  S  S  S  S S S  S  S S S  S  S S S  S  S  S  S S S   S  S S S

|-15p10p8p7-15s17s15-10p8p7-----------15p10p8p7-15s17s15-10p8p7------------|
|---------------------------15p10p8p7----------------------------15p10p8p7-|
|--------------------------------------------------------------------------|
|--------------------------------------------------------------------------|
|--------------------------------------------------------------------------|
|--------------------------------------------------------------------------|

  T         T         T         T         T         T
   |---------------------------3----------------------------|
   S  S S S  S  S S S  S  S S S  S  S S S  S  S S S  S  S S S
|-15p10p8p7------------------------------------------------------|
|-----------15p10p8p7--------------------------------------------|
|---------------------15p10p8p7----------------------------------|
|-------------------------------15p10p8p7------------------------|
|-----------------------------------------15p10p8p7--------------|
|---------------------------------------------------15p10p8p7----|


  E E E E E E E E
|------------------|
|------------------|
|------------------|
|-7-7-7-7-7-7-7-7--|
|-7-7-7-7-7-7-7-7--|
|-5-5-5-5-5-5-5-5--|


 
A thousand fathers killed, a thousand virgin daughters spread

                                              PM---------------------|
                                               |-3--| |-3-| |-3-| |-3-|
  W          +H     E  E  +Q     H.      Q     E  E E E E E E E E E E E
|----------|---------------------|------------|---------------------------|
|----------|---------------------|------------|---------------------------|
|----------|--------9--12--------|-4-------5--|---------------------------|
|-7--------|-(7)----x---x--------|-x-------x--|---------2-----------2-3-5-|
|-7--------|-(7)----7--10--------|-2-------3--|--2--3-5---5-3-2-3-5-------|
|-5--------|-(5)-----------------|------------|---------------------------|



with swords still wet, with swords still wet with the blood of their dead


                |--3--| |-3--| |-3-|  |-3-|
   W            E  E  E E  E E E E E  E E E
|-----------|-------------------------------|
|-10--------|-------------------------------|
|--x--------|-----------7--------7------7-9-|
|--7--------|---7--9-10---10-9-7---9-10-----|
|-----------|-------------------------------|
|-----------|-------------------------------|



  H     a  H       H                 H
|----------------|-------------------------------------|
|----------------|-------------------------------------|
|----------------|-------------------------------------|
|-10----10h12----|-------------------10----------------|
|----------------|-14----------------------------------|
|----------------|-------------------------------------|



        A thousand                            fathers killed,           

   |--3--|  |--3--|  |--3--|  |--3--|    |--3--|  |--3--|  |--3--|  |--3--|
   E  E  E  E  E  E  E  E  E  E  E  E    E  E  E  E  E  E  E  E  E  E  E  E
|-------------------------------------|-------------------------------------|
|-------------------------------------|-------------------------------------|
|-17-17-17-17-17-17-17-17-17-17-17-17-|-14-14-14-14-14-14-14-14-14-14-14-14-|
|--x--x--x--x--x--x--x--x--x--x--x--x-|--x--x--x--x--x--x--x--x--x--x--x--x-|
|-15-15-15-15-15-15-15-15-15-15-15-15-|-12-12-12-12-12-12-12-12-12-12-12-12-|
|-------------------------------------|-------------------------------------|



       a thousand                           virgin daughters spread

   |--3--|  |--3--|  |--3--|  |--3--|    |--3--|  |--3--|
   E  E  E  E  E  E  E  E  E  E  E  E    E  E  E  E  E  E  Q     Q
|-------------------------------------|--------------------------------|
|-------------------------------------|--------------------------------|
|-16-16-16-16-16-16-16-16-16-16-16-16-|-12-12-12-12-12-12-\9-----7-----|
|--x--x--x--x--x--x--x--x--x--x--x--x-|--x--x--x--x--x--x--x-----x-----|
|-14-14-14-14-14-14-14-14-14-14-14-14-|-10-10-10-10-10-10-\7-----5-----|
|-------------------------------------|--------------------------------|


      with   swords  still   wet,               with   swords  still  wet

   |--3--|  |--3--|  |--3--|  |--3--|    |--3--|  |--3--|  |--3--|  |--3--|
   E  E  E  E  E  E  E  E  E  E  E  E    E  E  E  E  E  E  E  E  E  E  E  E
|-------------------------------------|-------------------------------------|
|-------------------------------------|-------------------------------------|
|-14-14-14-14-14-14-14-14-14-14-14-14-|-10-10-10-10-10-10-10-10-10-10-10-10-|
|--x--x--x--x--x--x--x--x--x--x--x--x-|--x--x--x--x--x--x--x--x--x--x--x--x-|
|-12-12-12-12-12-12-12-12-12-12-12-12-|--8--8--8--8--8--8--8--8--8--8--8--8-|
|-------------------------------------|-------------------------------------|


   with the blood                             of their dead


   |--3--|  |--3--|  |--3--|  |--3--|    |--3--|  |--3--|  |--3--|  |--3--|
   E  E  E  E  E  E  E  E  E  E  E  E    E  E  E  E  E  E  E  E  E  E  E  E
|-------------------------------------|-------------------------------------|
|-------------------------------------|-------------------------------------|
|-12-12-12-12-12-12-12-12-12-12-12-12-|-13-13-13-13-13-13-13-13-13-13-13-13-|
|--x--x--x--x--x--x--x--x--x--x--x--x-|--x--x--x--x--x--x--x--x--x--x--x--x-|
|-10-10-10-10-10-10-10-10-10-10-10-10-|-11-11-11-11-11-11-11-11-11-11-11-11-|
|-------------------------------------|-------------------------------------|

  TomooooooorrrrrrOOOOOOOOowWWWWWWWWWWWWWWWWW

      T      T        T        T       T
  S S  S S S  S S S  S S S  S S S  S  S
||----------------------------------------------|
||0------13-----12--8p5--15--5h8--17--8p5-13s15-|
||-----9----------------------------------------|
||---7------5-5---------------------------------|
||0---------------------------------------------|
||----------------------------------------------|


      T      T        T        T       T
  S S  S S S  S S S  S S S  S S S  S  S
|---------------------------------------------||
|-----13-----12--8p5--15--5h8--17--8p5-13s15-0||
|---9-----------------------------------------||
|-7------5-5----------------------------------||
|--------------------------------------------0||
|---------------------------------------------||


             Tomorrow 
  
   We          will         meet 
||-----------------------------------------|
||o----------------------------------------|
||-----------------------------------------|
||--3--3---3----3-----3----3----3-----3----|
||o-3--3---3----3-----3----3----3-----3----|
||--1--1---1----1-----1----1----1-----1----|


        They          will

  meet         their        blades
  E  E   E    E     E    E    E     E
|----------------------------------------|
|----------------------------------------|
|-5--5---5----5-----5----5----5-----5----|
|-5--5---5----5-----5----5----5-----5----|
|-3--3---3----3-----3----3----3-----3----|
|----------------------------------------|

         find           us

        by           morning
| E  E   E    E     E    E    E    E
|---------------------------------------|
|---------------------------------------|
|----------------------------------9----|
|-5--5---5----5-----5----5----5---------|
|-5--5---5----5-----5----5----5----7----|
|-3--3---3----3-----3----3----3---------|

Hide the children free of sin!
        
                                  Protected only by our skin!!
1st ending                    2nd
  +E  E E E E E E E             E E E  E  E E Q
|----------------------------||-------------------|
|---------------------------o||-------------------|
|-(9)-7-7-5-5-4-4-5----------||-9-7-7-10-10-9-9---|
|-(-)------------------------||-------------------|
|-(7)-5-5-3-3-2-2-3---------o||-7-5-5--8--8-7-7---|
|----------------------------||-------------------|


Sweeping Part
"Tomorrow we will find them And we will meet them with our fury" Part

    S S S S S S S S S S S S S S S S
||----------------------------------|
||o-------5h6p5-----------5h6p5-----|
||------5-------5-------5-------5---|
||----7-----------7---7-----------7-|
||o-8---------------8---------------|
||----------------------------------|


   S  S  S  S  S  S  S  S  S  S  S  S  S  S  S  S
|--------------------------------------------------|
|----------12h13p12----------------12h13p12--------|
|-------12----------12----------12----------12-----|
|----14----------------14----14----------------14--|
|-15----------------------15-----------------------|
|--------------------------------------------------|

   S  S  S  S  S  S  S  S  S  S  S  S  S  S  S  S
|-------------------------------------------------|
|-------------------------------------------------|
|----------------------------------12-14-12-------|
|-12----12-14-12----------12-14-15----------15-14-|
|----15----------15-14-15-------------------------|
|-------------------------------------------------|


   S   S  S  S  S  S  S  S  S  S  S  S  S  S  S  S
|-----------------------------------------13-15-17--||
|--------------13-15-13----------13-15-17----------o||
|-----12-14-16----------16-14-16--------------------||
|-15------------------------------------------------||
|--------------------------------------------------o||
|---------------------------------------------------||



Repeat the DA DA DADA Chord 



Outro


   vermin!!,                                 kill!!!



  Q  E E  E  E E E   Q  E E Q  E E   Q  E E  E  E E E   Q  E E Q  E E
|------------------|---------------|------------------|-----------------|
|------------------|---------------|------------------|-----------------|
|----7-9-----------|---------------|----7-9-----------|-----------------|
|-2--7-9-----5-7---|-7--8---7--8-9-|-2--7-9-----5-7---|-7--8---9--7-5---|
|-2--5-7-----5-7---|-7--8---7--8-9-|-2--5-7-----5-7---|-7--8---9--7-5---|
|-0-------0--3-5-0-|-5--6-0-5--6-7-|-0-------0--3-5-0-|-5--6-0-7--5-3---|


  WE    WILL   CRUSH     THEM     ALL          LIKE         VERMIN!!!!!!


  Q  E E  E  E E E   Q  E E Q  E E   Q  E E  E  E E E   Q  E E H
|------------------|---------------|------------------|-----------------|
|------------------|---------------|------------------|-----------------|
|----7-9-----------|---------------|----7-9-----------|-----------------|
|-2--7-9-----5-7---|-7--8---7--8-9-|-2--7-9-----5-7---|-7--8------------|
|-2--5-7-----5-7---|-7--8---7--8-9-|-2--5-7-----5-7---|-7--8------------|
|-0-------0--3-5-0-|-5--6-0-5--6-7-|-0-------0--3-5-0-|-5--6-0----------|


OOOOO



|---|  Hold until end
|---|
|---|
|-2-|
|-2-|
|-0-|

















comments
We did not receive enough feedback on this tab! Please rate:
print report bad tab
1 2 3 4 5
5 comments total. Showing first comments.
0 reply
Ashlerrx wrote on May 23 2008, 02:45 am

I'm the one who tabbed this >.>...

0 reply
xdaynex wrote on June 16 2008, 05:23 pm

itz actually not that abd of a tab-some parts are awee bit off but it still soudns pretty good to me-4 and a half stars. and good job on having the ending solo, cuz itz the only tab with it. and i think you just made the whole song way easier than it is already:) at least i think so

0 reply
OkageSamaDe wrote on February 11 2009, 03:37 pm

Nurjan is upon us, he kills in silence after prayers" part.. actually it is''ghengis kahn is upon us, he slays his betrayers'' i got that straight from the lyric book from the cd

I want to post or [tab]
guest
You may want to rate the tab now too:
select rating
Please do not post tabs as comments. Select "correction" instead!