Oops, an error
Loading. Please wait.

Bloodmeat Bass Tab

version 3
version 3

Whole song

11,106 views 9 this week
2 commentsread comments
1 2 3 4 5
x 4
add to favorites
launch autoscroll
font size
0
reset
guitar tuner
Autoscroll
slow
fast
+/-
esc
set tempo
stop
Help us to improve Ultimate-Guitar.com Take our survey!
×
Author
You should probably read all this stuff:

I could not find a completely correct tab, so I decided to go out of my way 
to tab the correct bass parts for the song. If you have any trouble at all 
figuring out the tab, look up a video on YouTube that is titled "Bloodmeat 
Bass Track" by user 'ProtestsTheHero'. It should help massively. The m:ss 
are based on the YouTube video. It is in Eb/D# standard tuning. 

U-G: I know I might have "cheated" a bit by tabbing it out by ear using
the actual bass track, but there is not one completely correct tab and
it would be nice to have a completely correct tab up. It has taken me hours
and hours to complete and correct this tab, so please, hear me out.

0:05
F#||--------------------------------|----------------------------------|
C#||--------------------------------|----------------------------------|
G#||--------------------------------|----------------------------------|
D#||--0---0---0-0---0---0---0---0-0-|--0---0---0-0---0---0---0---0-0-0-|
A#||--------------------------------|----------------------------------| 2x

0:13
F#||--------------------------------|----------------------------------|
C#||--------------------------------|----------------------------------|
G#||--------------------------------|----------------------------------|
D#||-0---0-3---3-2-0---6-3-0---3-2-0|-0---0-3---3-2-0---6-3-0---9-6----|
A#||--------------------------------|----------------------------------|

0:16
F#||--------------------------------|----------------------------------|
C#||--------------------------------|----------------------------------|
G#||--------------------------------|----------------------------------|
D#||--0---0---0-0---0---0---0---0-0-|--0---0---0-0---0---0---0---0-0-0-|
A#||--------------------------------|----------------------------------|

0:20
F#||--------------------------------|----------------------------------|
C#||--------------------------------|----------------------------------|
G#||--------------------------------|----------------------------------|
D#||-0---0-3---3-2-0---6-3-0---3-2-0|-0---0-3---3-2-0---6-3-0---9-6-0--|
A#||--------------------------------|----------------------------------| 2x

0:28 Basically, 4th string open on bass drum hits between snare rolls
F#||--------------------------------|----------------------------------|
C#||--------------------------------|----------------------------------|
G#||--------------------------------|----------------------------------|
D#||-0---0-0------------------------|-0---0-0-------------------0------|
A#||--------------------------------|----------------------------------|

0:32
F#||--------------------------------|----------------------------------|
C#||--------------------------------|----------------------------------|
G#||--------------------------------|----------------------------------|
D#||-0---0-0---3-5---5---6---5---6-7|-0---0-0---3-5---5---6---7---5-3--|
A#||--------------------------------|----------------------------------| 2x

0:40
F#||--------------------------------|
C#||--------------------------------|
G#||--------------------------------|
D#||-3---000---000---3---000---000--|
A#||--------------------------------|

0:42
F#||--------------------------------|----------------------------------|
C#||--------------------------------|----------------------------------|
G#||--------------------------------|----------------------------------|
D#||-0---0-0---3-5---5---6---5---6-7|-0---0-0---3-5---5---6---7---5-3--|
A#||--------------------------------|----------------------------------| 2x

0:50
F#||-----------------------------------|-----------------------------|
C#||-----------------------------------|-----------------------------|
G#||-----------------------------------|-------7--8--9---------------|
D#||-3--000--000--000--3---00000000000-|----0-----------0-0-3--0-0-0-|
A#||-----------------------------------|-----------------------------|

0:56
F#||----------12------------14------------12---15h14h12----|
C#||-12h13h14------12h13h14------12h13h14---------------14-|
G#||-------------------------------------------------------|
D#||-------------------------------------------------------|
A#||-------------------------------------------------------|

0:58              Slap Bass Technique
F#||-------------------------|
C#||-------------------------|
G#||-----7-----------7-------|
D#||-----------------------x-|
A#||-5-------5---5-5---5-5---| 4x

1:05
F#||---5~~~------------------------------------|
C#||-7---7--77--77--7--77--77--7--77--77--7--7s|
G#||-------------------------------------------|
D#||-------------------------------------------|
A#||-------------------------------------------|

1:09
F#||----12~~~-------------------------------------------------------|
C#||s14----14--14-14--14-14--14--14-14--14-14--14--14-14--14-14--14s|
G#||----------------------------------------------------------------|
D#||----------------------------------------------------------------|
A#||----------------------------------------------------------------|

1:12
F#||----14~~~-------------------------------------------------------0|
C#||s15----15--15-15--15-15--15--15-15--15-15--15--15-15--15-15--15--|
G#||-----------------------------------------------------------------|
D#||-----------------------------------------------------------------|
A#||-----------------------------------------------------------------|

1:15
F#||-----------------------------0----------------------------|
C#||----14~~~--------------------------9----------------------|
G#||-15----15--15-15--15-15--15s---s10---10--10-10--10-10--10-|
D#||----------------------------------------------------------|
A#||----------------------------------------------------------|

1:19                 More Slap Bass
F#||--------------------------|---------------------------|
C#||-----------7--------------|-----------7---------------|
G#||--------------------------|---------------------------|
D#||-5---5-5------5-5--5-5--6-|-5---5-5-------5-5--5-5--3-|
A#||--------------------------|---------------------------| 2x

1:26  5th fret 4th string is on 1st beat of the 4-measure pause
F#||-------------------------|
C#||-------------------------|
G#||-------------------------|
D#||-5-----------------------|
A#||-------------------------|

1:30  4th string open on snare hits
F#||--------------------------------|------------------------------|
C#||--------------------------------|------------------------------|
G#||--------------------------------|------------------------------|
D#||------0---0-------0---0---0-0-0-|---0---0-------0---0---0-0-0-0|
A#||--------------------------------|------------------------------| 2x

1:36
F#||---------------------------------|
C#||---------------------------------|
G#||---------------------------------|
D#||--0---0---0-0---0---0---0---0-0-0|
A#||---------------------------------|

1:38
F#||--------------------------------|------------------------------|
C#||--------------------------------|------------------------------|
G#||--------------------------------|------------------------------|
D#||------0---0-------0---0---0-0-0-|---0---0-------0---0---0-0-0-0|
A#||--------------------------------|------------------------------| 2x

1:45
F#||--------------------------------|----------------------------------|
C#||--------------------------------|----------------------------------|
G#||--------------------------------|----------------------------------|
D#||--0---0---0-0---0---0---0---0-0-|--0---0---0-0---0---0---0---0-0-0-|
A#||--------------------------------|----------------------------------|

1:49
F#||--------------------------------|----------------------------------|
C#||--------------------------------|----------------------------------|
G#||--------------------------------|----------------------------------|
D#||-0---0-3---3-2-0---6-3-0---3-2-0|-0---0-3---3-2-0---6-3-0---9-6-0--|
A#||--------------------------------|----------------------------------| 2x

1:57
F#||-------------------------|
C#||-------------------------|
G#||-------------------------|
D#||-0--------5--------------|
A#||-------------------------|

1:59
F#||--------------------------------|----------------------------------|
C#||--------------------------------|----------------------------------|
G#||--------------------------------|----------------------------------|
D#||-0---0-0---3-5---5---6---5---6-7|-0---0-0---3-5---5---6---7---5-3--|
A#||--------------------------------|----------------------------------| 2x

2:06
F#||----------------------------|---------------0--------|}
C#||----------------------------|------------------------|}
G#||----------------------------|------------------------|}
D#||-----4-------------4-----4--|-----4------------------|}
A#||--3-------3---3-3-----3-----|--3-------3----1--------|}
  After sliding up to the 15th fret, slowly slide down    > 2x
F#||----------------------------|------------------------|}
C#||----------------------------|------------------------|}
G#||----------------------------|------------------------|}
D#||-----4-------------4-----4--|-----4-------s15---///--|}
A#||--3-------3---3-3-----3-----|--3-------3-------------|}

2:25
F#||-------------------------|
C#||-------------------------|
G#||-------------------------|
D#||-5--5--5--5--5--5--5--5--|
A#||-------------------------|

2:27        All tapping until 2nd ending
F#||---------------5h--7h--9p--7p--5------------|         
C#||------------7---------------------7---------|
G#||-----3h--7---------------------------7p--3--| 
D#||--5-----------------------------------------|
A#||--------------------------------------------| 2x

F#||--------------------------------------------|
C#||---------------5h--7h--9p--7p--5------------|
G#||------------7---------------------7---------| 
D#||-----3h--7---------------------------7p--3--|
A#||--5-----------------------------------------| 2x

F#||---------------------------------------------|
C#||---------------7h--9h--10p--9p--7------------|
G#||------------8----------------------8---------| 
D#||-----5h--8----------------------------8p--5--|
A#||--6------------------------------------------| 2x
                     1st ending
F#||-----------------------------------------9h--10h--12--|
C#||----------------------------9h--10h--12---------------|
G#||---------------8h--10h--12----------------------------|
D#||--8h--10h--12-----------------------------------------|
A#||------------------------------------------------------|

F#||--------------------------------------7h--9h--10--|
C#||--------------------------7h--9h--10--------------|
G#||--------------7h--8h--10--------------------------|
D#||--7h--8h--10--------------------------------------|
A#||--------------------------------------------------|
  
2:50             2nd ending (2 measure solo)
F#||------------------------7h9h10------7h9h10-9h10h12-|
C#||------------------7h9h10------7h9h10---------------|
G#||-3s7-------7h8h10----------------------------------|
D#||-------5-------------------------------------------|
A#||---------------------------------------------------|

F#||-9-----------------------------------------|
C#||---12-10-9-12-10-9----10-9-------9---------|
G#||-------------------12------12-10---12-10-8-|
D#||-------------------------------------------|
A#||-------------------------------------------|

2:53
F#||-------------------------------------------------|
C#||-------------------------------------------------|
G#||-------------------5h7---------------------5h7---|
D#||-12-1---1---1---1----------5---5---5---5---------|
A#||-------------------------------------------------|

F#||-------------------------------------------------|
C#||-------------------------------------------------|
G#||-------------------5h7---------------------5h7---|
D#||----3---3---3---3----------3---3---3---3-------5-|
A#||-------------------------------------------------|

3:03
F#||-----------------------------------------------------------------|
C#||-----------------------------------------------------------------|
G#||-----------------3-3-3-3-3-3-3-2---------------------------------| 
D#||-1-1-1-1-1-1-1-1-----------------3-3-3-3-3-3-3-3-3-3-3-3-3-3-3-3-|
A#||-----------------------------------------------------------------| 2x

3:17
F#||----------------------------------------------------------------------|
C#||--------------------------9-10-9--------------------------------------|
G#||-------7-8-7-------7-9g10--------10-7---------------------------------|
D#||---5-8-------8-5-8----------------------------------------------------|
A#||-6------------------------------------8-8-8-8-8-8-8-8-8-8-8-8-8-8-8-8-|2x

3:30
F#||--------------------------------|----------------------------------|
C#||--------------------------------|----------------------------------|
G#||--------------------------------|----------------------------------|
D#||--0---0---0-0---0---0---0---0-0-|--0---0---0-0---0---0---0---0-0-0-|
A#||--------------------------------|----------------------------------|

F#||-------------------------|
C#||-------------------------|
G#||-------------------------|
D#||-18\\\\\\\\\\\\\\\\\\\\--|
A#||-------------------------|

3:36
F#||----------------------------------|----------------------------------|
C#||----------------------------------|----------------------------------|
G#||------5-7-------------------------|------5-7-------------------------|
D#||--0-------0-3-5-0-5---6-0-5---6-7-|--0-------0-3-5-0-5---6-0-7---5-3-|
A#||----------------------------------|----------------------------------|

F#||----------------------------------|----------------------------------|
C#||----------------------------------|----------------------------------|
G#||------5-7-------------------------|------5-7-------------------------|
D#||--0-------0-3-5-0-5---6-0-5---6-7-|--0-------0-3-5-0-5---6-7-7---5-3-|
A#||----------------------------------|----------------------------------|

3:50
F#||-------------------------|
C#||-------------------------|
G#||-------------------------|
D#||-0-----------------------|
A#||-------------------------|

~End~

I am 100% sure that this tab is at least 99.9% correct.
Suggest correction
comments
print report bad tab
2 comments total.
0 reply
13Kelly13 124 Sep 06, 2011 08:19 AM

Fantastic tab, the hard work payed off. Thanks a lot dude.

0 reply
Choodafoo 10 Sep 13, 2013 01:55 AM

No such thing as cheating on a tab. As long as you get it right.

guest
You may want to rate the tab now too:
select rating
Wanna post a correction for this tab? Suggest correction