Oops, an error
Loading. Please wait.

Bloodmeat Tab

version 4
version 4
40,507 views 9 this week
6 commentsread comments
1 2 3 4 5
excellent!
x 9
add to favorites
launch autoscroll
font size
0
reset
how to read this tab
guitar tuner
Autoscroll
slow
fast
+/-
esc
set tempo
stop
Help us to improve Ultimate-Guitar.com Take our survey!
×
Contributor
Difficulty
Tuning
intermediate
D# G# C# F# A# D#
Hey guys, Ive seen some tabs of this song and they all got something wrong with them, 
not right! well if you wanna learn how to play bloodmeat by protest the hero practice this tab-

intro:
Eb||------------------------------------|
Bb||------------------------------------|
Gb||-15-15-1515-15-15-15-1515151515-----|
Db||------------------------------------|
Ab||-12-12-1212-12-12-12-1212121212-----|
Eb||------------------------------------|


Eb||----------------------------------|
Bb||----------------------------------|
Gb||----------------------------------|
Db||----------------------------------|
Ab||-----10---10p9----10h13----6h9----|
Eb||-0-0----0------12-------11-----7--|


Eb||----------------------------------|
Bb||----------------------------------|
Gb||----------------------------------|
Db||----------------------------------|
Ab||-----10---10p9----10h13----13h16--|
Eb||-0-0----0------12-------11------14|


Eb||-----------------------------|
Bb||-----------------------------|
Gb||-----------------------------|
Db||-----------------------------|
Ab||---5h7-----------------------|
Eb||-0-----0-3h5-0-5--6-5-6-5-6-7|

Eb||-----------------------------|
Bb||-----------------------------|
Gb||-----------------------------|
Db||-----------------------------|
Ab||---5h7-----------------------|
Eb||-0-----0-3h5-0-5--6-5-7-6-4--|

Eb||---------------|
Bb||---------------|
Gb||---------------|
Db||-5-222--5-222--|
Ab||-5-222--5-222--|
Eb||-3-000--3-000--|

Eb||---------------|
Bb||---------------|
Gb||---------------|
Db||-7-8-9---12----|
Ab||-6-7-8---11----|
Eb||-5-6-7---10----|

Eb||-----------|
Bb||-----------|
Gb||-----------|
Db||-2--2-2-5--|
Ab||-2--2-2-5--|
Eb||-0--0-0-3--|
listen to the song for the pattern (im to lazy)
Eb||--------------------------------------------------------|
Bb||--------------------------------------------------------|
Gb||-17-14-17-14-19-16-12-16-12-17-14-7-14-7-8--14----------|
Db||--------------------------------------------------------|
Ab||-15-12-15-12-17-14-10-14-10-15-12-9-12-9-10-16----------|
Eb||--------------------------------------------------------|


Eb------------13--------------------17------------------18-17-15---------|
Bb-------14h15---15p14---------14h15--15p14--------14h15--------18-17-15-|
Gb--14h15-------------15p14h15-------------15p14h15----------------------|
Db-----------------------------------------------------------------------|
Ab-----------------------------------------------------------------------|
Eb-----------------------------------------------------------------------|

Eb||-------------------|
Bb||-------------------|
Gb||-18-17-15----15-17-|
Db||----------17-------|
Ab||-------------------|
Eb||-------------------|

Eb||------------------------------------------------|
Bb||------------------------------------------------|
Gb||------t17-------t16------t19-------------t17s19-|
Db||---h14-------h12---h12------h12-----h12---------|
Ab||h12-------h10---------h14------h14-----h14------|
Eb||------------------------------------------------|


Eb||--------------------------------------|
Bb||---------------h8h10t12---------------|
Gb||------------t11--------h9------h8-----|
Db||----t12-h7h9-------------h10-----h9---|
Ab||h7h9------------------------t12----t11|
Eb||--------------------------------------|

Eb||------------------------h8h10t12------------|
Bb||---------------h8h10t12---------h8h10t12s13-|
Gb||------------t11-----------------------------|
Db||----t12-h7h9--------------------------------|
Ab||h7h9----------------------------------------|
Eb||--------------------------------------------|

Eb||------------------------------------|
Bb||------------------------------------|
Gb||-15-15-1515-15-15-15-1515151515-----|
Db||------------------------------------|
Ab||-12-12-1212-12-12-12-1212121212-----|
Eb||------------------------------------|


Eb||-----------------------------|
Bb||-----------------------------|
Gb||-----------------------------|
Db||-----------------------------|
Ab||---5h7-----------------------|
Eb||-0-----0-3h5-0-5--6-5-6-5-6-7|

Eb||-----------------------------|
Bb||-----------------------------|
Gb||-----------------------------|
Db||-----------------------------|
Ab||---5h7-----------------------|
Eb||-0-----0-3h5-0-5--6-5-7-6-4*-|

Eb||-------------------------------------------------------------|
Bb||-------------------------------------------------------------|
Gb||-------------------------------------------------------------|
Db||7-----7--7-7---7---7----7-t13p8p7p5h7h8t13p8p7p5h7h8t13p8p7p5|
Ab||5-6---5--5-5-6-5-6-5-6--5------------------------------------|
Eb||--4----------4---4---4---------------------------------------|

Eb||--------------------------t15p10p8p7h8h10t15s17s15p10p8p7--------------|
Bb||---------------------------------------------------------t15p10p8p7-x2-|
Gb||-----------------------------------------------------------------------|
Db||7-----7--7-7---7---7----7----------------------------------------------|
Ab||5-6---5--5-5-6-5-6-5-6--5----------------------------------------------|
Eb||--4----------4---4---4-------------------------------------------------|

Eb||-t15p10p8p7---------------------------------------------------|
Bb||-----------t15p10p8p7-----------------------------------------|
Gb||---------------------t15p10p8p7-------------------------------|
Db||-------------------------------t15p10p8p7---------------------|
Ab||-----------------------------------------t15p10p8p7-----------|
Eb||---------------------------------------------------t15p10p8p7-|

Eb||---------------------------------------------------------------------|
Bb||---------------------------------------------------------------------|
Gb||-777777777--------------------------------------------7-----------7-9|
Db||-777777777----------------------------------7~--7-9-10-10-9-7-9-10---|
Ab||-555555555----------------7-----------7-8-10-------------------------|
Eb||-------------7--8~--7-8-10-10-8-7-8-10-------------------------------|

Eb||-------------------|
Bb||-------------------|
Gb||-------------------|
Db||-10-12-9-7~--------|
Ab||-------------------|
Eb||-------------------|


Eb||---------------------------------------------------------|
Bb||---------------------------------------------------------|
Gb||-17-14-17-14-19-16-12-16--21-19-14-7-14-7-8--14----------|
Db||---------------------------------------------------------|
Ab||-15-12-15-12-17-14-10-14--19-17-12-9-12-9-10-16----------|
Eb||---------------------------------------------------------|

Eb||------------------------------------------------|
Bb||------------------------------------------------|
Gb||------t17-------t16------t19-------------t17s19-|
Db||---h14-------h12---h12------h12-----h12---------|
Ab||h12-------h10---------h14------h14-----h14------|
Eb||------------------------------------------------|
harmonizes with:

Eb||-0-0-12-0-0-10-0-0-13-0-0-15-12h13------|
Bb||----------------------------------------|
Gb||----------------------------------------|
Db||----------------------------------------|
Ab||----------------------------------------|
Eb||----------------------------------------|

Eb||---------------------------------------------------------------|
Bb||---------------------------------------------------------------|
Gb||----------------5-5-5-5-5-5-5-5--------------------------------|
Db||3-3-3-3-3-3-3-3-5-5-5-5-5-5-5-5-5-5-5-5-5-5-5-5-5-5-5-5-5-5-5-5|
Ab||3-3-3-3-3-3-3-3-3-3-3-3-3-3-3-3-5-5-5-5-5-5-5-5-5-5-5-5-5-5-5-5|
Eb||1-1-1-1-1-1-1-1-----------------3-3-3-3-3-3-3-3-3-3-3-3-3-3-3-3|


Eb||-----------------|-----------------------|
Bb||-----------------|-----------------------|
Gb||-999-777-555-444-|-999-777-111-999-------|
Db||-----------------|-----------------------|
Ab||-777-555-333-222-|-777-555-999-777-------|
Eb||-----------------|-----------------------|

Eb||----------------|-------------------|
Bb||----------------|-------------------|
Gb||------9-10p9----|-------16-17p16----|
Db||----10------10--|-----17--------17--|
Ab||8h12----------12|15h19------------19|
Eb||----------------|-------------------|

Eb||-----------------------------------------------------------|
Bb||-----------------------------------------------------------|
Gb||------------------------------------14----------------14-15|
Db||---------14----------------14-15-17----17-15-14-15-17------|
Ab||14-15-17----17-15-14-15-17---------------------------------|
Eb||-----------------------------------------------------------|

Eb||------------------------------15-17-|
Bb||---15----------------15-17-18-------|
Gb||17----17-15-14-15-17----------------|
Db||------------------------------------|
Ab||------------------------------------|
Eb||------------------------------------|

Eb||------------------------------------|
Bb||------------------------------------|
Gb||-15-15-1515-15-15-15-1515151515-----|
Db||------------------------------------|
Ab||-12-12-1212-12-12-12-1212121212-----|
Eb||------------------------------------|

Eb||------------------------|
Bb||------------------------|
Gb||------------------------|
Db||--7-9-------------------|
Ab||2-5-7-2-5-7--7-8--7-8-9-|
Eb||0-----0-3-5--5-6--5-6-7-|


Eb||------------------------|---|
Bb||------------------------|---|
Gb||------------------------|-1-|
Db||--7-9-------------------|-2-|
Ab||0-5-7-0-5-7--7-8--7-9-6-|-2-|
Eb||0-----0-3-5--5-6--5-7-4-|-0-|             Tabbed by Jarett Hale
comments
print report bad tab
6 comments total. Showing first comments.
0 reply
senester 14 wrote on February 15 2010, 12:33 am

almost 100% man, almost, amazing though if you didn't use a tab book!

0 reply
KataklysmDeth 295 wrote on April 17 2010, 08:08 pm

The intro is....idk.. I've seen it two ways but the other way sounds more correct.

0 reply
Bernier51 68 wrote on June 13 2010, 01:26 pm

i think during verse the 4 should be a 3

I want to post or [tab]
guest
You may want to rate the tab now too:
select rating
Please do not post tabs as comments. Select "correction" instead!