Oops, an error
Loading. Please wait.

Bone Marrow Tab

version 1
version 1

Intro

Solo

Whole song

Interactive

4,926 views 3 this week
no commentswrite comment
1 2 3 4 5
excellent!
x 1
add to favorites
launch autoscroll
font size
0
reset
how to read this tab
guitar tuner
Tab Pro tools
  • play this tab
  • loop segment
  • change instrument
  • show fretboard
  • metronome
Autoscroll
slow
fast
+/-
esc
set tempo
stop
Contributor
Difficulty
advanced
well, here is the intro to Protest The Hero - Bone Marrow

Ive been looking for a tab for this for a while and havnt found one so i decided to tab 
myself.

its missing the last little riff at the end of it before the song kicks in but its 
than no tab i suppose.

im 99.9% sure this is right.


email me with any questions or comments
justindontbleed@hotmail.com


Guitar 1
D#||--10----9-10-9-----------------------------|
A#||-----11--------11-11-10--------------------|
F#||------------------------12----------9------|
C#||------------------------------11-12---11---|
G#||-------------------------------------------|
D#||-------------------------------------------|

--10----9-10-9--------------15-14-12-----|
-----11--------11-11-10--------------14--|
------------------------12---------------|
-----------------------------------------|
-----------------------------------------|
-----------------------------------------|


Guitar 2 (comes in after guitar one plays riff twice)
D#||--13----12-13-12------------------------------|
A#||-----15----------15-15-14---------------------|
F#||--------------------------15----------12------|
C#||--------------------------------14-15----14---|
G#||----------------------------------------------|
D#||----------------------------------------------|

--13----12-13-12--------------18-17-15-----|
-----15----------15-15-14--------------17--|
--------------------------15---------------|
-------------------------------------------|
-------------------------------------------|
-------------------------------------------|
comments
We did not receive enough feedback on this tab! Please rate:
print report bad tab
1 2 3 4 5
I want to post or [tab]
guest
You may want to rate the tab now too:
select rating
Please do not post tabs as comments. Select "correction" instead!