Oops, an error
Loading. Please wait.

Bone Marrow Tab

version 1
version 1

Whole song

Interactive

7,528 views 3 this week
3 commentsread comments
1 2 3 4 5
accurate
x 3
add to favorites
launch autoscroll
font size
0
reset
how to read this tab
guitar tuner
Autoscroll
slow
fast
+/-
esc
set tempo
stop
Help us to improve Ultimate-Guitar.com Take our survey!
×
Author
Difficulty
intermediate
----------------------------------------------------------------------------
                             Bone Marrow(Outro) - Protest the Hero
----------------------------------------------------------------------------

This is the acoustic guitar part of the outro of Bone Marrow or the intro to Sequoia 
Enjoy!

Tabbed by: Mike Martin
Email:cool_boy902@hotmail.com

Tuning: Standard
     1    2    3    4    1    2    3    4    1    2    3    4
e|-----------------------------------------------------------|
B|---3\1--3--3/5--------------------1/3\1-3/5----------------|
G|-----------------------------------------------------------|
D|---------------------------------------------7\5-----------|
A|-----------------------------------------------------------|
E|-----------------------------------------------------------|
     1    2    3    4    1    2    3    4    1    2    3    4
e|-----------------------------------------------------------|
B|-----------------------1/3\1--3--3/5-------1/3\1--3--3/5---|
G|-----------------------------------------------------------|
D|--------------------------------------------------------7\5|
A|-----------------------------------------------------------|
E|-----------------------------------------------------------|

     1    2    3    4    1    2    3    4    1    2    3    4
e|-----------------------3--3/5------------------------------|
B|---1/3\1--3--3/5--3/5----------5-3-------------------------|
G|-----------------------------------------------------------|
D|-----------------------------------------------------------|
A|-----------------------------------------------------------|
E|-----------------------------------------------------------|

The piano continues after until the end of the outro then Sequoia Throne begins a short 
after that.

Well that's it for now. Thanks for checkin' out this tab. It's been one of my first tabs 
a while but thanks anyway.Peace


| /  slide up
| \  slide down
| h  hammer-on
| p  pull-off
| ~  vibrato
| +  harmonic
| x  Mute note
============================================================================
Suggest correction
Give kudos to tab author, rate the tab!
1 2 3 4 5
comments
print report bad tab
3 comments total.
0 reply
I_Am_In_Flames 10 wrote on June 1 2008, 07:14 pm

It should be 3\1/3 not 1/3\1.

0 reply
Timmy Shredlock 10 wrote on August 8 2009, 01:01 am

why do ppl tab parts of songs

0 reply
renegade37270 10 wrote on November 2 2009, 09:07 pm

don't label it as bone marrow if it isn't the song

guest
You may want to rate the tab now too:
select rating
Please do not post tabs as comments. Select "correction" instead!