Oops, an error
Loading. Please wait.

Clarity Tab

version 1
version 1

Solo

Interactive

3,843 views 21 this week
no commentswrite comment
1 2 3 4 5
excellent!
x 2
add to favorites
launch autoscroll
font size
0
reset
how to read this tab
guitar tuner
Tab Pro tools
  • play this tab
  • loop segment
  • change instrument
  • show fretboard
  • metronome
Autoscroll
slow
fast
+/-
esc
set tempo
stop
Contributor
Difficulty
Tuning
advanced
D# G# C# F# A# D#
                       Clarity (Chorus and End Sweeps)                          


                                                                Protest The Hero
Track 1 - 1:26 - 1:40 and 2:52 - 3:06
       S  S  S  S  S  S  S  S  S  S  S  S  S  S  S  S  
D#||--15-12-------------------------------------14-15-|
A#||--------12-------------12-15-------------17-------|
F#||-----------12----12-14----------12-14-16----------|
C#||--------------14-------------14-------------------|
G#||--------------------------------------------------|
D#||--------------------------------------------------|
 
 
   S  S  S  S  S  S  S  S  S  S  S  S  S  S  S  S  
--17-14-------------------------------------14-17-|
--------15-------------------14-15----14-15-------|
-----------14----------14-16-------16-------------|
--------------16-14-16----------------------------|
--------------------------------------------------|
--------------------------------------------------|
 
 
   S  S  S  S  S  S  S  S  S  S  S  S  S  S  S  S  
--19-15----------------------------------15-17-19-|
--------15-------------15-------------15----------|
-----------16----16-17----------16-17-------------|
--------------17----------16-17-------------------|
--------------------------------------------------|
--------------------------------------------------|
 
 
  S S S  S  S  S S S S S S S  S  S  S  S  
-----------------------------------------|
-----------------------------------------|
-----------------------------------------|
-----------------------------------------|
--------10-10-10---------7-7-10-10-12-10-|
--7-7-7----------6-6-9-9-----------------|
 
 
   S  S  S  S  S  S  S  S  S  S  S  S  S  S  S  S  
--15-12-------------------------------------14-15-|
--------12-------------12-15-------------17-------|
-----------12----12-14----------12-14-16----------|
--------------14-------------14-------------------|
--------------------------------------------------|
--------------------------------------------------|
 
 
   S  S  S  S  S  S  S  S  S  S  S  S  S  S  S  S  
--17-14-------------------------------------14-17-|
--------15-------------------14-15----14-15-------|
-----------14----------14-16-------16-------------|
--------------16-14-16----------------------------|
--------------------------------------------------|
--------------------------------------------------|
 
 
   S  S  S  S  S  S  S  S  S  S  S  S  S  S  S  S  
--19-15----------------------------------15-17-19-|
--------15-------------15-------------15----------|
-----------16----16-17----------16-17-------------|
--------------17----------16-17-------------------|
--------------------------------------------------|
--------------------------------------------------|
 
 
  S S S  S  S  S S S S S S S  S  S  S  S       
-----------------------------------------|----|
-----------------------------------------|----|
-----------------------------------------|----|
-----------------------------------------|----|
--------10-10-10---------7-7-10-10-12-10-|----|
--7-7-7----------6-6-9-9-----------------|----|
 
 4:38 - 5:12
   S  S  S  S  S  S  S  S  S  S  S  S  S  S  S  S  
--------------------------------------19----------|
-----------------------------------17-------------|
--------------------------------16----------------|
-----------14----16-17-14-16-17----------17-16-14-|
-----14-------14----------------------------------|
--12----15----------------------------------------|
 
 
   S  S  S  S  S  S  S  S  S  S  S  S  S  S  S  S  
--------------------------14----------------------|
-----------------------------15-------------------|
-----------------16-------------16----------------|
--16-------16-------16-------------16----16-------|
-----17-14----17-------17-------------17----17-14-|
--------------------------------------------------|
 
 
   S  S  S  S  S  S  S  S  S  S  S  S  S  S  S  S  
--------------------------------------19----------|
-----------------------------------17-------------|
--------------------------------16----------------|
-----------14----16-17-14-16-17----------17-16-14-|
-----14-------14----------------------------------|
--12----15----------------------------------------|
 
 
   S  S  S  S  S  S  S  S  S  S  S  S  S  S  S  S  
--------------------------------------------------|
-----------------------------------------12-15-12-|
--------------------------------------------------|
--------------------------12-14----12-14----------|
-----------12-14----12-14-------14----------------|
--10-12-14-------14-------------------------------|
 
 
   S  S  S  S  S  S  S  S  S  S  S  S  S  S  S  S  
--------------------------------------19----------|
-----------------------------------17-------------|
--------------------------------16----------------|
-----------14----16-17-14-16-17----------17-16-14-|
-----14-------14----------------------------------|
--12----15----------------------------------------|
 
 
  S S  S  S S  S S  S S  S  S  S  S  S S  S  
------------------------------12------------|
---------------------------13----13---------|
------------9-12-9----9-12----------12-9----|
---------10--------10--------------------10-|
----7-10------------------------------------|
--8-----------------------------------------|
 
 
   S  S  S  S  S  S  S  S  S  S  S  S  S  S  S  S  
--------------------------14----------------------|
-----------------12----------15-------------------|
--11-------11-------11----------16----------------|
-----12-------12-------12----------16----16-------|
--------14----------------------------17----17-14-|
--------------------------------------------------|
 
 
  S S S S S S S  S S  S S  S  S  S  S S  
-------------------9--------------------|
----------------10---10-----------------|
------------6-9---------9---------------|
--------5-7---------------11------------|
------7----------------------12-10------|
--5-9------------------------------12-9-|
 
 
   S  S  S  S  S  S  S  S  S  S  S  S  S  S  S  S  
--------------------------------------19----------|
-----------------------------------17-------------|
--------------------------------16----------------|
-----------14----16-17-14-16-17----------17-16-14-|
-----14-------14----------------------------------|
--12----15----------------------------------------|
 
 
   S  S  S  S  S  S  S  S  S  S  S  S  S  S  S  S  
--------------------------14----------------------|
-----------------------------15-------------------|
-----------------16-------------16----------------|
--16-------16-------16-------------16----16-------|
-----17-14----17-------17-------------17----17-14-|
--------------------------------------------------|
 
 
   S  S  S  S  S  S  S  S  S  S  S  S  S  S  S  S  
--------------------------------------19----------|
-----------------------------------17-------------|
--------------------------------16----------------|
-----------14----16-17-14-16-17----------17-16-14-|
-----14-------14----------------------------------|
--12----15----------------------------------------|
 
 
   S  S  S  S  S  S  S  S  S  S  S  S  S  S  S  S  
--------------------------------------------------|
-----------------------------------------12-15-12-|
--------------------------------------------------|
--------------------------12-14----12-14----------|
-----------12-14----12-14-------14----------------|
--10-12-14-------14-------------------------------|
 
 
   S  S  S  S  S  S  S  S  S  S  S  S  S  S  S  S  
--------------------------------------19----------|
-----------------------------------17-------------|
--------------------------------16----------------|
-----------14----16-17-14-16-17----------17-16-14-|
-----14-------14----------------------------------|
--12----15----------------------------------------|
 
 
           |--3--|  |--3-| |--3--| |--3--|  |--3--|  |--3--|  
  S S  S S S  S  S  S S  S S  S  S S  S  S  S  S  S  S  S  S  
-------------------------------------------------------------|
-------------------------------------------10-12-13-12-10----|
-----------------------------------9-11-12----------------12-|
---------7-9-10-12-10-9----9-10-12---------------------------|
--7-9-10----------------12-----------------------------------|
-------------------------------------------------------------|
 
 
   S  S  S  S  S  S  S  S  S  S  S  S  S  S  S  S  
--------------------------14----------------------|
-----------------------------15-------------------|
-----------------16-------------16----------------|
--16-------16-------16-------------16----16-------|
-----17-14----17-------17-------------17----17-14-|
--------------------------------------------------|
 
 
  S S S S S S S  S S  S S  S  S  S  S S  
-------------------9--------------------|
----------------10---10-----------------|
------------6-9---------9---------------|
--------5-7---------------11------------|
------7----------------------12-10------|
--5-9------------------------------12-9-|
 
 
  S  S  S  S S  S S  S S  S  S  S  S  S S  S  
-------------------------------12------------|
----------------------------13----13---------|
-------------9-12-9----9-12----------12-9----|
----------10--------10--------------------10-|
-------10------------------------------------|
--8-12---------------------------------------|
 
 
  |--3--| |--3--| |--3--|  |--3-| |--3--| |--3--|  |--3--|  |--3--|  
  S  S  S S  S  S S  S  S  S S  S S  S  S S  S  S  S  S  S  S  S  S  
--------------------------------------------------------------------|
--------------------------------------------------10-12-13-12-10----|
------------------------------------------9-11-12----------------12-|
------------------9-10-12-10-9----9-10-12---------------------------|
----------9-10-12--------------12-----------------------------------|
--8-10-12-----------------------------------------------------------|
 
 
   W                   
---------------------||
---------------------||
---------------------||
--13~----------------||
---------------------||
---------------------||
 
 
 
 
Duration Legend
---------------
W - whole
H - half
Q - quarter
E - 8th
S - 16th
T - 32nd
X - 64th
. - note dotted
|-n-|  - n-tuplets
 
 
Tablature Legend
----------------
L - tied note
x - dead note
g - grace note
(n) - ghost note
> - accentuded note
NH - natural harmonic
AH - artificial harmonic
TH - tapped harmonic
SH - semi harmonic
PH - pitch harmonic
h - hammer on
p - pull off
b - bend
br - bendRelease
pb - preBend
pbr - preBendRelease
brb - bendReleaseBend
\n/ - tremolo bar dip
\n - tremolo bar dive
-/n - tremolo bar Release up
/n\ - tremolo bar inverted dip
/n - tremolo bar return
-\n - tremolo bar Release down
S - shift slide
s - legato slide
/ -  slide into from below or out of upwards
\ -  slide into from above or out of downwards
~ - vibrato
W - wide vibrato
tr - tril'
TP - tremolo picking
T - tapping
S - slap
P - pop
< - fade in
^ - brush up
v - brush down
comments
We did not receive enough feedback on this tab! Please rate:
print report bad tab
1 2 3 4 5
I want to post or [tab]
guest
You may want to rate the tab now too:
select rating
Please do not post tabs as comments. Select "correction" instead!