Oops, an error
Loading. Please wait.

Hair-Trigger Bass Tab

version 1
version 1

Whole song

Interactive

4,476 views 3 this week
1 commentread comment
1 2 3 4 5
please rate
add to favorites
launch autoscroll
font size
0
reset
guitar tuner
Tab Pro tools
  • play this tab
  • loop segment
  • change instrument
  • show fretboard
  • metronome
×
Best way to learn
"Hair-trigger"
Autoscroll
slow
fast
+/-
esc
set tempo
stop
Contributor
Difficulty
Tuning
advanced
D# G# C# F# A# D#
-------------------------------------------------------------------------------
			     HAIR-TRIGGER - Protest the Hero - Scurrilous
-------------------------------------------------------------------------------
Tabbed by: Randal Mckissack (posted by Steve Rutherford)
Twitter: @stever1138
Email: steverock_48@hotmail.com

//A big HUGE thanks to Randal for sending me the tabs

//Any Questions, Comments, Mistakes are appreciated

/**
  *Tuning: Half-Step Down (Five-String)
  **/

Part A:


Gb|-------------------------9-------------------------------------------------|
Db|---------------------------------------------------------------------------|      
Ab|----------------------7----------------------------------------------------|
Eb|-3-2-0-0-3-2-0-0-0-0-------------------------------------------------------|
Bb|---------------------------------------------------------------------------|  
do thrice more 

Part B:


Gb|---------------------------------------------------------------------------|
Db|---------------------------------------------------------------------------|
Ab|---------------------------3-3-3-3-3-3--5-5-5-5-5-5------------------------|
Eb|-0-0-0-0-0-0--0-0-0-0-0-0--------------------------------------------------|
Bb|---------------------------------------------------------------------------|  
do once more

Part C:


Gb|------------------------5-------5-------------------------5-------2--------|
Db|-------5-------5-------------------------2-------2-------------------------|
Ab|------------------3-3-3---3-3-3---------------------3-3-3---0-0-0----------|
Eb|-3-3-3---3-3-3---------------------0-0-0---0-0-0---------------------------|
Bb|---------------------------------------------------------------------------| 
on to part D

Part D:


Gb|---------------------------------------------------------------------------|
Db|---------------------------------------------------------------------------|
Ab|--------------------------0--2---------------------------------------------|
Eb|-0--0--0-0-0-0--0-0--0-0---------------------------------------------------|
Bb|---------------------------------------------------------------------------| 
on to part E

Part E:


Gb|---------------------------------------------------------------------------|
Db|--------------------------------------2-1-0--------------------------------|
Ab|--------------------------0-0-0-0-0-0-------2-1-0--------------------------|
Eb|-0--0--0-0-0-0--0-0--0-0---------------------------------------------------|
Bb|---------------------------------------------------------------------------| 
do part D again, then part F

Part F:

Gb|---------------------------------------------------------------------------|
Db|--------------------------------------------------------------2------------|
Ab|---------------------------3-2-0-0-0-0-0-0-0--1111111----------------------|
Eb|-1111111--3333333--0000000----------------------------4444444--------------|
Bb|---------------------------------------------------------------------------| 
do part A again, then G

Part G:
                   
Gb|-------------0-2-5-7-------------------------------------------------------|
Db|---------0-2---------------------------------------------------------------|
Ab|-----0-2-------------------------------------------------------------------|
Eb|-0-3-------------------3--0------------------------------------------------|
Bb|---------------------------------------------------------------------------| 
on to part H

Part H:

Gb|-------------0-2-5-7---------0-2-5-7---------------------------------------|
Db|---------0-2---------------0-2---------------------------------------------|
Ab|-----0-2---------------0-2-------------------------------------------------|
Eb|-0-3-----------------------------------------------------------------------|
Bb|---------------------------------------------------------------------------| 
play part G again, then H again, then I

Part I:


Gb|--------------------4-----------7---7--------------------------------------|
Db|-2-1-0---------------------------------------------------------------------|
Ab|-------4-3-1--0-2-2---0-4-0-5-5---5----------------------------------------|
Eb|---------------------------------------------------------------------------|
Bb|---------------------------------------------------------------------------| 
play part G again, then J

Part J:


Gb|---------------------------------------------------------------------------|
Db|---------------------------------------------------------------------------|
Ab|-7-6-5-5-------------------------------------------------------------------|
Eb|----------6-5-3-0-3-5-6-3-5--3-6-7-----------------------------------------|
Bb|---------------------------------------------------------------------------| 
play part G again, then J again, then K

Part K:


Gb|---------------------------------------------------------------------------|
Db|---------------------------------------------------------------------------|
Ab|--------7--------7---------------------------------------------------------|
Eb|---7--0-----7--0-----------------------------------------------------------|
Bb|-0--------0----------------------------------------------------------------| 
on to part L

Part L:


Gb|-----------0-4-------------------------------------------------------------|
Db|-----0-2-4-----------------------------------------------------------------|
Ab|-2-4-----------------------------------------------------------------------|
Eb|---------------------------------------------------------------------------|
Bb|---------------------------------------------------------------------------| 
part L again, then M

Part M:


Gb|-9-7-6-4-2------9-7-6-4-2--------------------------------------------------|
Db|------------4-5-------------4-5--------------------------------------------|
Ab|---------------------------------------------------------------------------|
Eb|---------------------------------------------------------------------------|
Bb|---------------------------------------------------------------------------| 
do part L twice, then M, then on to N

Part N:


Gb|---------------------------------------------------------------------------|
Db|---------------------------------------------------------------------------|
Ab|---------------------------------------------------------------------------|
Eb|-0-0-0-0--0-0-0-0--0-0-0-0--0-0-0-0----------------------------------------|
Bb|---------------------------------------------------------------------------|
(part L twice, part M) 
                                        
comments
We did not receive enough feedback on this tab! Please rate:
print report bad tab
1 2 3 4 5
1 comment total.
0 reply
SirToasty wrote on January 6 2013, 07:08 pm

I can't follow this at all. Part A, part B? Either learn some rhythmic notation or provide timestamps.

I want to post or [tab]
guest
You may want to rate the tab now too:
select rating
Please do not post tabs as comments. Select "correction" instead!