Oops, an error
Loading. Please wait.

I Am Dmitri Karamazov And The World Is My Father Bass Tab

1,954 views 1 this week
no commentswrite comment
1 2 3 4 5
excellent!
x 3
add to favorites
launch autoscroll
font size
0
reset
guitar tuner
Autoscroll
slow
fast
+/-
esc
set tempo
stop
Help us to improve Ultimate-Guitar.com Take our survey!
×
Contributor
Protest the Hero
I Am Dmitri Karamazov And the World is My Father
A Calculated Use of Sound (2003)

Tabbed by: Mathew Geraghty

There are a couple of errors in places, and some of the rhythms aren't perfectly
tabbed as this song was tabbed by simply a text editor, but for the most part it
should be a decent tab. Feedback is encouraged!

	0:00-0:15
Gb :------------------------------------------------|------------------------------------------------|
Db :------------------------------------------------|------------------------------------------------|
Ab :------------------------------------------------|------------------------------------------------|
Eb :--0--------------------0--0--------------------0|--0-----------------------------------------00--|

Gb :------------------------------------------------|------------------------------------------------|
Db :------------------------------------------------|------------------------------------------------|
Ab :--7---7---7-------7-7-7---5---5---5-------5-5-5-|--0-----------------------3--3--3--3--2--2--2--2|
Eb :------------------------------------------------|------------------------------------------------|

	0:15-1:02  And so it starts...
Gb :*------------------------------------------------|-------------------------------------------------*|
Db :*------------------------------------------------|-------------------------------------------------*|
Ab :*--3--3--3--3--3--3--3--3------------------------|--3--3--3--3--3--3--3--3-------------------------*|
Eb :*--------------------------0--0--0--0--0--0--0--0|--------------------------0--0--0--0--0--0--0--0-*|

Gb :*------------------------------------------------|------------------------------------------------*|
Db :*----------------------------------------------5-|------------------------------------------------*|
Ab :*--------------------0--2--3---------------------|--5---------------------------------------------*|
Eb :*--0---------------------------------------------|--------------------------3---3-3-----1---1-1---*|

	I've questioned all my life...
Gb :------------------------------------------------|--------------------------------------|
Db :------------------------------------------------|--------------------------------------|
Ab :--------------------------3--3--3----3-3--3-3-3-|--5-----5----5-5--5-5-5---------------|
Eb :--0-----0----0-0--0-0-0-------------------------|--------------------------3-------3-1-|

Gb :------------------------------------------------|-----------------------------------------------|
Db :------------------------------------------------|-----------------------------------------------|
Ab :--------------------------3--3--3----3-3--3-3-3-|--5-----5----5-5--5-5-5------------------------|
Eb :--0-----0----0-0--0-0-0-------------------------|--------------------------1-1--1---1--1--3--1--|

	What cost do I pay for being born of you?
Gb :*------------------------------------------------|-------------------------------------------------*|
Db :*------------------------------------------------|-------------------------------------------------*|
Ab :*--------------------------------------7-7---7-7-|--------------------------7-7-7--7-7-7-7-7-7-----*|
Eb :*--0---------------------------------------------|--0-------------------------------------------0--*|

Gb :*--------------------------------------------9--|--------------------------------------------9--*|
Db :*-----------------------------------------8-----|-----------------------------------------8-----*|
Ab :*--7---------7---------7--------------7---------|--7---------7---------7--------------7---------*|
Eb :*----0--6--0---0--6--0---0--6--0--6-------------|----0--6--0---0--6--0---0--6--0--6-------------*|

	1:27-1:41
Gb :--------------------------------------------------------------------------|
Db :--------------------------------------------------------------------------|
Ab :--7---------7-----7--------7--7-----7-----7--------7--7-----7-----7-------|
Eb :----0--6--0----6-----6--6--------6-----6-----6--6--------6-----6-----6-|\-|

Gb :--------------------------------------|--------------------------------------|
Db :--------------------------------------|--------------------------------------|
Ab :--7---------7---------7-------------7-|--7---------7---------7-------------7-|
Eb :----0--6--0---0--6--0---0--6--0--6----|----0--6--0---0--6--0---0--6--0--6----|

Gb :--------------------9-----8--------|-------------------------------------------|
Db :--------------8--------------------|-------------------------------------------|
Ab :--------7--------------------------|--7------7------7---------7--7--7--7--7--7-|
Eb :--6--------------------------------|----0--6---0--6---0--6--0------------------|

	Who is my mother? Where is here grace?
Gb :*---------------------------------------|------------------------------------*|
Db :*---------------------------------------|------------------------------------*|
Ab :*--------------5-----5-5-5--3-----3-3-3-|------------5--5--7--7--3-----3-3-3-*|
Eb :*--3----3-3-3---------------------------|3-----3-3-3-------------------------*|
	It's gone...       It's...    gone!
Gb :-------------------------------|----------------------------------------------|
Db :-------------------------------|----------------------------------------------|
Ab :--3-----3-3-3-3----------------|----------------------------------------------|
Eb :-------------------------------|---0-----------------------0------------------|
	Or should  I    say    it never existed anyway!
Gb :-----------------------------------------------|
Db :-----------------------------------------------|
Ab :-----------------------------------------------|
Eb :--0-----0-----0-----0-----0--0--0--0--0--0--00-|

Gb :------------------------------------------------|------------------------------------------------|
Db :------------------------------------------------|------------------------------------------------|
Ab :--7-----7----7-7--7-7-7---5-----5----5-5--5-5-5-|--0-----0----0-0--0-0-0---3---------------------|
Eb :------------------------------------------------|------------------------------------------------|

Blurry winter clouds/my subscription my addiction
Gb :------------------------------------------------|*-------------------------------------*|
Db :------------------------------------------------|*-------------------------------------*|
Ab :------------------------------------------------|*--------------------7-7-5-5-2-2------*|
Eb :--000---000---000---000---000---000---000---000-|*-000--000--000--000-------------3-3--*|

	2:31-3:34
Gb :*------------------------------------------------|-------------------------------------------------*|
Db :*------------------------------------------------|-------------------------------------------------*|
Ab :*--3--3-3-------------3-3--5--5-5---------5-5-5-5|--7-7-7--------------7-7--7-7-7----7--7-7-7-7-77-*|
Eb :*------------------------------------------------|-------------------------------------------------*|

	If I had one love in this world...
Gb :*------------------------------------------------|-------------------------------------------------*|
Db :*------------------------------------------------|-------------------------------------------------*|
Ab :*--3-3--3--3-3-3--3--3333--5-5--5--5-5-5--5--5555|--7-7-----7-7----7777-----7--7-----7-7-7---77777-*|
Eb :*------------------------------------------------|-------------------------------------------------*|

Repeat above twice

	A pound of nuts is simply not enough...
Gb :--------------------------------------------------------------|
Db :--------------------------------------------------------------|
Ab :--------------------------------------------------------------|
Eb :--0-0-0-0-0-0-0-0-0-0-0-0-0-0-----0-0-0-0-0-0-0-0-0-0-0-0-0-0-|

	And though I didn't kill you, like you tried to do to me.
Gb :------------------------------------------------|------------------------------------------------|
Db :------------------------------------------------|------------------------------------------------|
Ab :--5---3---3-------------------------------------|--5---3---3-------------------------------------|
Eb :------------------------------------------------|------------------------------------------------|

Gb :------------------------------------------------|------------------------------------------------|
Db :------------------------------------------------|------------------------------------------------|
Ab :--5---3---3-------------------------------------|--5---3---3-------------------------------------|
Eb :------------------------------------------------|--------------------------0-0--0--0-0--0--0-----|
comments
We did not receive enough feedback on this tab! Please rate:
print report bad tab
1 2 3 4 5
I want to post or [tab]
guest
You may want to rate the tab now too:
select rating
Please do not post tabs as comments. Select "correction" instead!