Oops, an error
Loading. Please wait.

Red Stars Over The Battle Of The Cowshed Bass Tab

1,117 views 1 this week
no commentswrite comment
1 2 3 4 5
1 last vote to show rating
add to favorites
launch autoscroll
font size
0
reset
guitar tuner
Autoscroll
slow
fast
+/-
esc
set tempo
stop
Help us to improve Ultimate-Guitar.com Take our survey!
×
Author
Difficulty
intermediate
song:red stars over the battle of the cowshed
artist:protest the hero
bassist:Arif Mirabdolbaghi
album:A calculated use of sound

intro

(during when the man is talking)
Gb|---------------------------------------|
Db|---------------------------------------|
Ab|-5-7----------------5-7----------------| x 4
Eb|-----000-000-000-00-----000-000-000-00-| 

I declare war!
Gb|---|-----|
Db|---|-----|
Ab|---|-----|
Eb|-0-|-0-0-|


vocals enter
Gb|---------------------------------------|
Db|---------------------------------------|
Ab|-5-7----------------5-7----------------| x 2
Eb|-----000-000-000-00-----000-000-000-00-| 


Gb|---------------------------|
Db|-------/14\10--------------|
Ab|-3333----------------------| x 2
Eb|--------------00000-33333--|

Gb|---------------------------------------------|---|
Db|---------------------------------------------|---|
Ab|-3333333333------------3333333333-5555555555-|-7-|
Eb|------------0000000000-----------------------|---|

Gb|-------------------------|
Db|-------------------------|
Ab|-------------------------|
Eb|-00-00-00-00-00-00-00-00-|

Gb|-----------------------------------|--------------------|
Db|-----------------------------------|--------------------|
Ab|-33333333333333333-000000000000000-|-------------3----3-|
Eb|-----------------------------------|-00-00-00-00---00---|


Gb|-----------------------------------|
Db|-----------------------------------|
Ab|-33333333333333333-000000000000000-|
Eb|-----------------------------------|

Gb|---|---|---|---|----|---------------------------------------------|----|------|
Db|---|---|---|---|----|---------------------------------------------|----|------|
Ab|---|---|---|---|----|---------------------------------------------|----|------|
Eb|-0-|-0-|-0-|-0-|-00-|-0-000-0-00-0-000-0-00-0-000-0-00-0-000-0-00-|-0~-|-000~-|

Gb|-----------------------------------------|
Db|-----------------------------------------|
Ab|-----------3333-2222-----------3333-2222-|
Eb|-0000-0000-----------0000-0000-----------|

Gb|--------------------------------------------|
Db|--------------------------------------------|
Ab|-3333333333-5555555555-77777777777777777777-|
Eb|--------------------------------------------|

Gb|-------------------------------------------------------|
Db|-------------------------------------------------------|
Ab|-3333333333-5555555555---------------------------------|
Eb|-----------------------000-000-000-000-000-000-000-000-|

Gb|-----------------------------------|      |-----|
Db|-----------------------------------|      |-----|
Ab|-33333333333333333-000000000000000-| x 2  |---3-|
Eb|-----------------------------------|      |-0---|

Gb|------------------------------------------------| |-----|
Db|------------------------------------------------| |-----|
Ab|-33333333333333333-1212121212121212121212121212-| |---3-|
Eb|------------------------------------------------| |-0---|

Gb|------------------------------------------------| 
Db|------------------------------------------------| 
Ab|-33333333333333333-1212121212121212121212121212-| 
Eb|------------------------------------------------| 

Gb|----|
Db|----|
Ab|----|
Eb|-0~-|

any comments or mistakes email me at alexisonfire_01@hotmail.com
im pretty sure this is right tho :)
please rate




Suggest correction
Give kudos to tab author, rate the tab!
1 2 3 4 5
comments
print report bad tab
guest
You may want to rate the tab now too:
select rating
Wanna post a correction for this tab? Suggest correction