Oops, an error
Loading. Please wait.

Sequoia Throne Tab

version 1
version 1

Solo

Whole song

1,472 views 1 this week
no commentswrite comment
1 2 3 4 5
3 more votes to show rating
add to favorites
launch autoscroll
font size
0
reset
how to read this tab
guitar tuner
Autoscroll
slow
fast
+/-
esc
set tempo
stop
Help us to improve Ultimate-Guitar.com Take our survey!
×
Author
Difficulty
Tuning
advanced
D# G# C# F# A# D#
-------------------------------------------------------------------------------
                     Sequoia Throne - Protest the Hero
-------------------------------------------------------------------------------
Tabbed by: Cody Hockenberry
Email: magrodydog@yahoo.com

Tuning:D#,G#,C#,F#,A#,d#

This tab is for the sweeping section at the end of Sequoia Throne by
Protest the Hero, from their album Fortress. The other tab was pretty 
decent, but there were a few mistakes. So I cleaned it up, and added the
proper symbols, hammers, pulls, slides, etc. Enjoy, good luck!


d#|-15p12----------------------------12h15p12----------------------------12|
A#|-------13----------------------13----------13----------------------13---|
F#|----------12----------------12----------------12----------------12------|
C#|-------------14----------14----------------------14----------14---------|
G#|----------------15p10h15----------------------------15p10h15------------|
D#|------------------------------------------------------------------------|

d#|-19p15----------------------------15h19p15----------15h19p15------------|
A#|-------17----------------------17----------17----17----------17---------|
F#|----------16----------------16----------------16----------------16------|
C#|-------------15----------15----------------------------------------15---|
G#|----------------17p14h17----------------------------------------------17|
D#|------------------------------------------------------------------------|

d#|----------------14h17p14----------------------------14h17p14------------|
A#|-------------15----------15----------------------15----------15---------|
F#|----------14----------------14----------------14----------------14------|
C#|-------16----------------------16----------16----------------------16---|
G#|-12h17----------------------------17p12h17----------------------------17|
D#|------------------------------------------------------------------------|

d#|---------------10h14p10----------------------------12h15p12-------------|
A#|------------12----------12----------------------13----------13----------|
F#|---------11----------------11----------------12----------------12-------|
C#|------12----------------------12----------14----------------------14----|
G#|-9h14----------------------------14-10h15----------------------------15-|
D#|------------------------------------------------------------------------|

d#|--------------8h12p8---------8-15-10-14-15-14-10------------------------|
A#|-----------10--------10---10---------------------13-12-10----10-12------|
F#|---------9--------------9---------------------------------12------------|
C#|------10----------------------------------------------------------------|
G#|-7h12-------------------------------------------------------------------|
D#|------------------------------------------------------------------------|

d#|-13-8-12-13-12-8--------------8p5------------------7-12p8---------8-----|
A#|-----------------11-10------------6--------------8--------10---10-------|
F#|-----------------------12-10~-------5----------7-------------9----------|
C#|--------------------------------------7------9--------------------------|
G#|----------------------------------------8/10----------------------------|
D#|------------------------------------------------------------------------|

d#|-12p8--------------------------10-15-13-12----12-13-15-13-12------------|
A#|------10--------------------11-------------15----------------15-13-12---|
F#|---------9---------------10---------------------------------------------|
C#|-----------10---------12------------------------------------------------|
G#|--------------12p8h13---------------------------------------------------|
D#|------------------------------------------------------------------------|

d#|----------------------------13-15-17------------------------------------|
A#|-17-15-13----------13-15-17---------------------------------------------|
F#|----------16-14-16------------------------------------------------------|
C#|------------------------------------------------------------------------|
G#|------------------------------------------------------------------------|
D#|------------------------------------------------------------------------|

d#|--------------------t17------------15t17p15-----t15/--------------------|
A#|---t17----15t17--------------15t17----------t15-------------------------|
F#|------t16------16p14---14t16--------------------------------------------|
C#|-h14--------------------------------------------------------------------|
G#|------------------------------------------------------------------------|
D#|------------------------------------------------------------------------|

************************************

| /   slide up
| \   slide down
| h   hammer-on
| p   pull-off
| t   tap
| ~   vibrato
| +   harmonic
| x   Mute note
| b   Bend
| pb  Pre-bend
| br  Bend release
| pbr Pre-bend release
| brb Bend release bend

************************************
Suggest correction
Give kudos to tab author, rate the tab!
1 2 3 4 5
comments
print report bad tab
guest
You may want to rate the tab now too:
select rating
Wanna post a correction for this tab? Suggest correction