Oops, an error
Loading. Please wait.

Sequoia Throne Tab

version 4
version 4

Whole song

Video

6,009 views 1 this week
4 commentsread comments
1 2 3 4 5
x 10
add to favorites
×
Save as Personal and add changes to this tab that will be seen only by you. Learn more ›
×
You can save this tab as Personal to edit and correct it or add notes. All changes will be seen only by you. Learn more »
save as personal
new!
launch autoscroll
font size
0
reset
how to read this tab
guitar tuner
backing track
0:00
0:00
Autoscroll
slow
fast
+/-
esc
set tempo
stop
Author
Difficulty
Tuning
advanced
D# G# C# F# A# D#
Tuning: Half-step down

       T  T     T  T     T     T     T     T     T
D#|----------------------17-------------------------|
A#|----17----15-17----15----15----15-17-------14-17-|
F#|-------16-------16----------16-------12-15-------|
C#|-14----------------------------------------------|
G#|-------------------------------------------------|
D#|-------------------------------------------------|

        T  T     T  T     T     T     T     T     T
D#|----------------------17-------------15-17-15----|
A#|----17-------17----15----15----15-17----------17-|
F#|-------16-------16----------16-------------------|
C#|-14-------14-------------------------------------|
G#|-------------------------------------------------|
D#|-------------------------------------------------| (x3)

D#|-----------------------------------------------------------------|
A#|-----------------------------------------------------------------|
F#|-----------------------------------------------------------------|
C#|-----------------------------------------------------------------|
G#|-2-2-2-2-2-2-2-2-----------------2-2-2-2-2-2-2-2-------------5-7-|
D#|-0-0-0-0-0-0-0-0-5-4-0-1-0-0-4-5-0-0-0-0-0-0-0-0-5-7-8-4-5-7-----|

D#|-----------------------------------------------------------------|
A#|-----------------------------------------------------------------|
F#|-------------------------------------------------------------7h9-|
C#|-------------------------------------------------------6h8h9-----|
G#|-2-2-2-2-2-2-2-2-----------------2-2-2-2-2-2-2-2-5h7h8-----------|
D#|-0-0-0-0-0-0-0-0-5-4-0-1-0-0-4-5-0-0-0-0-0-0-0-0-----------------|

(Notice the rhythm change when playing the E power chords, again refer to the video for help on
rhythm. Basically its the same pattern as the one before, easy right?! By the way, when you reach
the x2, repeat this whole section not just that bar its next to and then finish up 
with the last riffs.)

D#|---------------------------------------------------------------------------|
A#|---------------------------------------------------------------------------|
F#|---------------------------------------------------------------------------|
C#|---------------------------------------------------------------------------|
G#|-2-2---2---2-2-2-----------------2-2---2---2-2-2-------------5-7-----------|
D#|-0-0---0---0-0-0-5-4-0-1-0-0-4-5-0-0---0---0-0-0-5-7-8-4-5-7---------------|

D#|---------------------------------------------------------------------------|
A#|---------------------------------------------------------------------------|
F#|---------------------------------------------------------------------------|
C#|----------------------------------------------------------7h9h10-9h10h12-2-|
G#|-2-2---2---2-2-2-----------------------------5h7h8-7h8h10----------------2-|
D#|-0-0---0---0-0-0-5-4-0-1-0-0-4-5-4h5h7-5h7h8-----------------------------0-|

           T        T        T        T        T
D#|-------19-------17-------------------------------|
A#|-12h15----12h15----12h15-19-12h15-17-12h15-------|
F#|-------------------------------------------18/19-|
C#|-------------------------------------------------|
G#|-------------------------------------------------|
D#|-------------------------------------------------|

           T        T        T        T        T
D#|-------------------------------------------------|
A#|-------19-------17-------------------------17/19-|
F#|-12h15----12h15----12h15-19-12h15-18-12h15-------|
C#|-------------------------------------------------|
G#|-------------------------------------------------|   
D#|-------------------------------------------------| (x2)

          T       T       T       T       T
D#|------16------14---------------------------------|
A#|-9h12----9h12----9h12-16-9h12-14-9h12------------|
F#|--------------------------------------15/16------|
C#|-------------------------------------------------|
G#|-------------------------------------------------|
D#|-------------------------------------------------|

          T       T       T       T       T
D#|-------------------------------------------------|
A#|------16------14----------------------14/16------|
F#|-9h13----9h13----9h13-16-9h13-15-9h13------------|
C#|-------------------------------------------------|
G#|-------------------------------------------------|
D#|-------------------------------------------------|

        T  T     T  T     T     T     T     T     T
D#|----------------------17-------------15-17-15----|
A#|----17-------17----15----15----15-17----------17-|
F#|-------16-------16----------16-------------------|
C#|-14-------14-------------------------------------|
G#|-------------------------------------------------|
D#|-------------------------------------------------|

(Youre probably wondering why I split it up this way (haha). Again refer back to the video for help
on rhythm.)
D#|---------------------------------|
A#|---------------------------------|
F#|---------------------------------|
C#|---------------------------------|
G#|-2-2-2-2---2-2-2-2-2-----2-2-2-2-|
D#|-0-0-0-0---0-0-0-0-0-----0-0-0-0-|

D#|-------------------------------------|
A#|-------------------------------------|
F#|-------------------------------------|
C#|-------------------------------------|
G#|---2-2-2-2-2-----2-2-2-2---2-2-2-2-2-|
D#|---0-0-0-0-0-----0-0-0-0---0-0-0-0-0-|

                          + + + +
D#|-----------------------------|
A#|---------------------5-5-5-5-|
F#|---------------------5-5-5-5-|
C#|---------------------5-5-5-5-|
G#|-----2-2-2-2---2-2-2---------|
D#|-----0-0-0-0---0-0-0---------| (x2)

D#|------------|
A#|------------|
F#|------------|
C#|---/5-4-----|
G#|------------|
D#|-0------5-3-|

D#|------------------------------------------------------------------------|
A#|------------------------------------------------------------------------|
F#|------------------------------------------------------------------------|
C#|---/5-4---------/5-4---------/5-4---------/5-4--------------4h5h7-------|
G#|------------------------------------------------------3h5h7-------------|
D#|-0------5-3---0------6-7---0------5-3---0-------3h5h7-------------------|

D#|------------------------------------------------------------------------|
A#|------------------------------------------------------------------------|
F#|------------------------------------------------------------------4h5h7-|
C#|---/5-4---------/5-4---------/5-4---------/5-4--------------4h5h7-------|
G#|------------------------------------------------------3h5h7-------------|
D#|-0------5-3---0------6-7---0------5-3---0-------3h5h7-------------------|

D#|--------------------------------------------------|
A#|--------------------------------------------------|
F#|--------------------------------------------------|
C#|---/5-4h5p4---------/5-4h5p4---------/5-4h5p4-----|
G#|--------------------------------------------------|
D#|-0----------5-3---0----------6-7---0----------5-3-|

D#|--------------------------------------------------|
A#|--------------------------------------------------|
F#|------------------------------------------4h5h7---|
C#|---/5-4h5p4-------------4h5h7-------4h5h7---------|
G#|------------------3h5h7-------3h5h7---------------|
D#|-0----------3h5h7---------------------------------|

D#|-----------------------------------------------------------|
A#|-----------------------------------------------------------|
F#|-----------------------------------------------------------|
C#|---/5-4h5p4---------/5-4h5p4---------/5-4h5p4---------/5-4-|
G#|-----------------------------------------------------------|
D#|-0----------5-3---0----------6-7---0----------5-3---0------|

D#|-------------------------------5h7h8-|
A#|-------------------------5h7h8-------|
F#|-------4h5h7-------4h5h7-------------|
C#|-4h5h7-------4h5h7-------------------|
G#|-------------------------------------|
D#|-------------------------------------|

D#|-------------------------------5h7h8--------7h8h10-|
A#|-------------------------5h7h8-------7h8h10--------|
F#|-------4h5h7-------4h5h7---------------------------|
C#|-4h5h7-------4h5h7---------------------------------|
G#|---------------------------------------------------|
D#|---------------------------------------------------| (x4)

D#|-------------------------------------------------|
A#|-------------------------------------------------|
F#|-------------------------------------------------|
C#|---------------------------------------------4-5-|
G#|-2-2-2-2---2-2-2-3-7-6-3-6-7-3-7-3-7-6-3-6-7-----|
D#|-0-0-0-0---0-0-0---------------------------------|

D#|-------------------------------------|
A#|-------------------------------------|
F#|---------------------------------4-5-|
C#|-----------------------------4-5-----|
G#|-0-7-6-0-6-7-0-7-0-7-6-7-6-7---------|
D#|-------------------------------------|

D#|----------------------------------------------------------------------------------|
A#|---------------------------------------------------------------------------7h8h10-|
F#|-9-7-5-----------5---------------------------------------5h7h9p7p5---5h7h9--------|
C#|-------9-7-5-7-9---9-7-5---------------5h7h9p7p5---5h7h9-----------9--------------|
G#|-------------------------9-7-5---5h7h9-----------9--------------------------------|
D#|-------------------------------8--------------------------------------------------|

D#|------------------10----------------|
A#|-8~------10-10b12----12br10-8~------|
F#|------------------------------------|
C#|------------------------------------|
G#|------------------------------------|
D#|------------------------------------|

(Start slowing down on the second four.)
D#|-------5-7-8-7-5---------------------------------|
A#|-5-7-8-----------8-7-5---------------------------|
F#|-----------------------7-5-4---------------------|
C#|-----------------------------7-5-4---------------|
G#|-----------------------------------7-5-3---------|
D#|-----------------------------------------7-5-5b6-|

(Two knuckle shuffle:)
D#|---------------------------------|
A#|---------------------------------|
F#|---------------------------------|
C#|---------------------------------|
G#|---8-7-8-7-----8-7-8-6---8-7-8-7-|
D#|-0---------0-0---------0---------| (x4)

D#|---------------------------------------------|
A#|---------------------------------------------|
F#|---------------------------------------------|
C#|---------------------------------------------|
G#|---15-14-15-14-----15-14-15-13---15-14-15-14-|
D#|-0-------------0-0-------------0-------------| (x2)

Like he says on the video when he plays it live he just goes up but for the sake of the album
recording and clarity i put the whole thing up, youre welcome.

D#|----------------------------------------------------------------14-------|
A#|----------------------------------------------13-------------13----13----|
F#|----------12----------------12-------------16----16-------14----------14-|
C#|-------14----14----------14----14-------14----------14-13----------------|
G#|----14----------14----15----------15-12----------------------------------|
D#|-12----------------12----------------------------------------------------| (x2)

D#|-----------------------------------------------------------------------|
A#|-----------------------------------------------------------------------|
F#|----------12----------------11----------------11---------------9-------|
C#|-------14----14----------13----13----------12----12---------11---11----|
G#|----14----------14----14----------14----12----------12---12---------12-|
D#|-12----------------11----------------10----------------9---------------|

D#|--------------------12-15/19p15-----------------------12-15/17p14----|
A#|-----------------13-------------17-----------------13-------------15-|
F#|------------9/12------------------------------9/12-------------------|
C#|---------10--------------------------------10------------------------|
G#|------10--------------------------------10---------------------------|
D#|-8h12------------------------------8h12------------------------------|

D#|--------------------12-15/19p15-----------------------12-15----------|
A#|-----------------13-------------17-----------------13----------------|
F#|------------9/12------------------------------9/12-------------------|
C#|---------10--------------------------------10------------------------|
G#|------10--------------------------------10---------------------------|
D#|-8h12------------------------------8h12------------------------------|

D#|-19p0-15p0-17-14---19-0-15-0-17-14---14--------------------------------------------|
A#|----------------------------------------15-----------------------------------------|
F#|-----------------------------------------------------------------------------------|
C#|-----------------------------------------------------------------------------------|
G#|-----------------------------------------------------------------------------------|
D#|-----------------------------------------------------------------------------------|

D#|-19p0-15p0-17-14---15----14----15-------15/17-14--------14-15-17-15-14-------------|
A#|----------------------17----15----12/13---------15---15----------------17-15-------|
F#|---------------------------------------------------14------------------------17-16-|
C#|-----------------------------------------------------------------------------------|
G#|-----------------------------------------------------------------------------------|
D#|-----------------------------------------------------------------------------------| (x2)

D#|-------------------------------------------------------------|
A#|-12~------15-15b17r15-13-12-10~------10-12-13-13b15r13-12-10-|
F#|-------------------------------------------------------------|
C#|-------------------------------------------------------------|
G#|-------------------------------------------------------------|
D#|-------------------------------------------------------------|

D#|-------------------------------------------------------------|
A#|-8-8-8-8-8-8-8-8-8-8-8-8-10-10-10-10-10-10-10-10-10-10-10-10-|
F#|-------------------------------------------------------------|
C#|-------------------------------------------------------------|
G#|-------------------------------------------------------------|
D#|-------------------------------------------------------------|

D#|-------------------------------------------15----------------|
A#|-12-12-12-12-12-12-13-13-13-13-13-13-15b17----15b17----------|
F#|-------------------------------------------------------------|
C#|-------------------------------------------------------------|
G#|-------------------------------------------------------------|
D#|-------------------------------------------------------------|

D#|-15p12----------------------------12-15p12----------------------------12-|
A#|-------13----------------------13----------13----------------------13----|
F#|----------12----------------12----------------12----------------12-------|
C#|-------------14----------14----------------------14----------14----------|
G#|----------------15-10h15----------------------------15-10h15-------------|
D#|-------------------------------------------------------------------------|

D#|-19p15----------------------------15-19p15----------15-19p15-------------|
A#|-------17----------------------17----------17----17----------17----------|
F#|----------16----------------16----------------16----------------16-------|
C#|-------------17----------17----------------------------------------17----|
G#|----------------19-14h19----------------------------------------------19-|
D#|-------------------------------------------------------------------------|

D#|----------------14-17p14----------------------------14-17p14-------------|
A#|-------------15----------15----------------------15----------15----------|
F#|----------14----------------14----------------14----------------14-------|
C#|-------16----------------------16----------16----------------------16----|
G#|-12h17----------------------------17-12h17----------------------------17-|
D#|-------------------------------------------------------------------------|

D#|---------------10-14p10----------------------------12-15p12--------------|
A#|------------12----------12----------------------13----------13-----------|
F#|---------11----------------11----------------12----------------12--------|
C#|------12----------------------12----------14----------------------14-----|
G#|-9h14----------------------------14-10h15----------------------------15--|
D#|-------------------------------------------------------------------------|

D#|--------------8-12p8---------8-15-10-14h15p14p10-------------------|
A#|-----------10--------10---10---------------------13-12----------12-|
F#|---------9--------------9------------------------------14-12-14----|
C#|------10-----------------------------------------------------------|
G#|-7h12--------------------------------------------------------------|
D#|-------------------------------------------------------------------|

D#|-13p8h12h13p12p8-------------8p5------------------7-10-|
A#|-----------------12-10-----------6--------------8------|
F#|-----------------------12-10-------5----------7--------|
C#|-------------------------------------7------9----------|
G#|---------------------------------------8-10------------|
D#|-------------------------------------------------------|

D#|-12p8---------8-12p8------------------------10-13-13p10----------10-|
A#|------10---10--------10------------------11-------------11----11----|
F#|---------9--------------9-------------10-------------------10-------|
C#|--------------------------10-------12-------------------------------|
G#|-----------------------------12-13----------------------------------|
D#|--------------------------------------------------------------------|

D#|-15-13-12-15-13-12-------------------------------------------12-15--|
A#|-------------------15-13-12-15-13-12----------------12-13-15--------|
F#|-------------------------------------14-12-10-12-14-----------------|
C#|--------------------------------------------------------------------|
G#|--------------------------------------------------------------------|
D#|--------------------------------------------------------------------|

       T  T     T  T     T     T     T     T     T
D#|----------------------17-------------15-17-15----|
A#|----17-------17----15----15----15-17----------17-|
F#|-------16-------16----------16-------------------|
C#|-14-------14-------------------------------------|
G#|-------------------------------------------------|
D#|-------------------------------------------------|



************************************

| h   Hammer-on
| /   Slide up
| p   Pull-off
| b   Bend
| br  Bend release
| ~   Vibrato
| r   Release
  

************************************
Suggest correction
comments
print report bad tab
4 comments total. Showing first comments.
0 reply
betyourmother 10 Oct 11, 2010 11:13 AM

perfect and extremely helpful, thnx man
5 stars for sure

0 reply
joekool1 10 Oct 11, 2010 05:06 PM

love the song but realized quickly that its out of my league. i just picked up the guitar again and was never really and good anyway. wondering if there is an easy pth song and if so, could you tab it.

0 reply
TheOmegaKitten 88 Oct 12, 2010 04:20 PM

Sorry Joekool1 but unfortunately all of Protest The Heros songs are pretty advanced liked this but I do suggest keeping this in your back pocket and keeping it as a goal in the future. I also had trouble learning this song at first because of the fact I wasn't skilled enough as well (hell I still don't have this down completely yet haha) but i would recommend working up to this by playing other songs incorporating the techniques used. Learn the tapping part of Van Halen's Eruption, possibly the solo in Sublime's Santeria, and any Avenged Sevenfold song would work on increasing the speed of your playing. Hope this helps, feel free to comment again with any further questions.

guest
You may want to rate the tab now too:
select rating
Wanna post a correction for this tab? Suggest correction