Oops, an error
Loading. Please wait.

These Colours Dont Run Tab

version 1
version 1

Whole song

Interactive

1,683 views 1 this week
1 commentread comment
1 2 3 4 5
please rate
add to favorites
launch autoscroll
font size
0
reset
how to read this tab
guitar tuner
Autoscroll
slow
fast
+/-
esc
set tempo
stop
Help us to improve Ultimate-Guitar.com Take our survey!
×
Author
Difficulty
Tuning
intermediate
D A D G B E
Protest The Hero 
"These Colours Dont Run"
A calculated use of sound

Note :To get the song down perfectly i recommend listening to the song and playing along. Drop D tuning 


INTRO PART 1 
    

e|------------------------------------------------------------------------|
b|------------------------------------------------------------------------|
g|------------------------------------------------------------------------|
D|-x-x--x--x-x-x--x--x-x-x--x--x-x-x-x------------------------------------|
A|-x-x--x--x-x-x--x--x-x-x--x--x-x-x-x------------------------------------|
D|-x-x--x--x-x-x--x--x-x-x--x--x-x-x-x------------------------------------|
e|------------------------------------------------------------------------|
b|------------------------------------------------------------------------|
g|------------------------------------------------------------------------|
D|-x-x--x--x-x-x--x--x-x-x--x--x-x-x-x------------------------------------|
A|-x-x--x--x-x-x--x--x-x-x--x--x-x-x-x------------------------------------|
D|-x-x--x--x-x-x--x--x-x-x--x--x-x-x-x------------------------------------|

e|------------------------------------------------------------------------|
b|------------------------------------------------------------------------|
g|-----------------------------10--10-------------------------------------|
D|-x-x--x--x-x-x--x--x-x-x--x--x---x--------------------------------------|
A|-x-x--x--x-x-x--x--x-x-x--x--8---8--------------------------------------|
D|-x-x--x--x-x-x--x--x-x-x--x---------------------------------------------|

e|------------------------------------------------------------------------|
b|------------------------------------------------------------------------|
g|-----------------------------10--10-------------------------------------|
D|-x-x--x--x-x-x--x--x-x-x--x--x---x--------------------------------------|
A|-x-x--x--x-x-x--x--x-x-x--x--8---8--------------------------------------|
D|-x-x--x--x-x-x--x--x-x-x--x---------------------------------------------|

INTRO PART 2

 
e|-------------------------------------------------------------------------|
b|-------------------------------------------------------------------------|
g|-10-10-10-10-10-10--11-11-11-11-11-11-10-10-10-10-10-10-x-x-x-x-x-x------|
D|-x--x--x--x--x--x---x--x--x--x--x--x--x--x--x--x--x--x--x-x-x-x-x-x------|
A|-8--8--8--8--8--8---9--9--9--9--9--9--8--8--8--8--8--8--x-x-x-x-x-x------|
D|-------------------------------------------------------------------------|

e|------------------------------------------------------------------------|
b|------------------------------------------------------------------------|
g|-10-10-10-10-10-10-11-11-11-11-11-11-10----10------\--------------------|
D|-x--x--x--x--x--x--x--x--x--x--x--x--x-----x-------\--------------------|
A|-8--8--8--8--8--8--9--9--9--9--9--9--8-----8-------\--------------------|
D|------------------------------------------------------------------------|


e|-------------------------------------------------------------------------|
b|-------------------------------------------------------------------------|
g|-10-10-10-10-10-10--11-11-11-11-11-11-10-10-10-10-10-10-x-x-x-x-x-x------|
D|-x--x--x--x--x--x---x--x--x--x--x--x--x--x--x--x--x--x--x-x-x-x-x-x------|
A|-8--8--8--8--8--8---9--9--9--9--9--9--8--8--8--8--8--8--x-x-x-x-x-x------|
D|-------------------------------------------------------------------------|

e|---------------------------------------------------------------------
b|------------------------------------------11-11--11-11---------------
g|-10-10-10-10-10-10-11-11-11-11-11-11-10----------\-------------------
D|-x--x--x--x--x--x--x--x--x--x--x--x--x------------\------------------
A|-8--8--8--8--8--8--9--9--9--9--9--9--8------------\------------------
D|---------------------------------------------------------------------

*after Intro Part 2, repeat intro part 1 and then go into .

Verse 

e|------------------------------------------------------------------------|
b|------------------------------------------------------------------------|
g|-10-10-10-10-10-10-3-3-3-3-3-3-6-6-6-6-6-6-6-6-6-6-6-6-6-6--------------|
D|-x--x--x--x--x--x--x-x-x-x-x-x-x-x-x-x-x-x-x-x-x-x-x-x-x-x--------------|
A|-8--8--8--8--8--8--1-1-1-1-1-1-4-4-4-4-4-4-4-4-4-4-4-4-4-4--------------|
D|------------------------------------------------------------------------|

CHORUS   

Gtr 1
e|------------------------------------------------------------------------|
b|------------------------------------------------------------------------|
g|-6-6-6-6-6-6-6-6-6-6-6-6------------------------------------------------|
D|-6-6-6-6-6-6-6-6-6-6-6-6-4-4-4-4-4-4-7-7-7-7-7-7------------------------|
A|-4-4-4-4-4-4-4-4-4-4-4-4-4-4-4-4-4-4-7-7-7-7-7-7------------------------|
D|-------------------------4-4-4-4-4-4-7-7-7-7-7-7------------------------|
                                       {palm mute}
e|------------------------------------------------------------------------|
b|------------------------------------------------------------------------|
g|-6-6-6-6-6-6-6-6-6-6-6-6------------------------------------------------|
D|-6-6-6-6-6-6-6-6-6-6-6-6-4-4-4-4-4-4-7-7-7-7-7-7------------------------|
A|-4-4-4-4-4-4-4-4-4-4-4-4-4-4-4-4-4-4-7-7-7-7-7-7------------------------|
D|-------------------------4-4-4-4-4-4-7-7-7-7-7-7------------------------|
                                       {palm mute} 


Bridge 

e|------------------------------------------------------------------------|
b|------------------------------------------------------------------------|
g|------------------------------------------------------------------------|
D|--------4^--3~----4~---6~----7~-----------------------------------------|
A|-1~---------------------------------------------------------------------|
D|------------------------------------------------------------------------|


Gtr 1
e|------------------------------------------------------------------------|
b|------------------------------------------------------------------------|
g|---------8---------------8---------------8---------------8--------------|
D|-8-10-11---11-10-8-10-11---11-10-8-10-11---11-10-8-10-11---11-10--------|
A|------------------------------------------------------------------------|
D|------------------------------------------------------------------------|

e|------------------------------------------------------------------------|
b|------------------------------------------------------------------------|
g|---------8---------------8---------------8---------------8--------------|
D|-8-10-11---11-10-8-10-11---11-10-8-10-11---11-10-8-10-11---11-10--------|
A|------------------------------------------------------------------------|
D|------------------------------------------------------------------------|


e|------------------------------------------------------------------------|
b|------------------------------------------------------------------------|
g|----------11----------------11----------------11----------------11------|
D|10-12-13----13-12-10-12-13----13-12-10-12-13----13-12-10-12-13----13-12-|
A|------------------------------------------------------------------------|
D|------------------------------------------------------------------------|

e|------------------------------------------------------------------------|
b|------------------------------------------------------------------------|
g|----------11----------------11----------------11----------------11------|
D|10-12-13----13-12-10-12-13----13-12-10-12-13----13-12-10-12-13----13-12-|
A|------------------------------------------------------------------------|
D|------------------------------------------------------------------------|



- thats basically as much of the song i have so far. hope it helped 










Suggest correction
Give kudos to tab author, rate the tab!
1 2 3 4 5
comments
print report bad tab
1 comment total.
0 reply
sixxslayer 31 wrote on December 4 2005, 07:13 pm

nice dude cant wait to see the rest

guest
You may want to rate the tab now too:
select rating
Wanna post a correction for this tab? Suggest correction