Oops, an error
Loading. Please wait.

Dope Cloud intro tab

652 views 15 this week
6 commentsread comments
1 2 3 4 5
x 5
add to favorites
×
Save as Personal and add changes to this tab that will be seen only by you. Learn more ›
×
You can save this tab as Personal to edit and correct it or add notes. All changes will be seen only by you. Learn more »
launch autoscroll
font size
0
reset
how to read this tab
guitar tuner
edit
Autoscroll
slow
fast
+/-
esc
set tempo
stop
[Intro/Outro:]

(Guitar)  

e|-----------------------------------------------------------------|
B|-----------------------------3---0---------------0---------------|
G|-------------3-0-2-2-2-2-2-2---4-0---------------0---------------|
D|-2-2-2-2-2-2---------------------0---------------0---------------|
A|---------------------------------5---------------2---------------|
E|-----------------------------------------------------------------|

(Bass) [*meant to note that the bass is not capo'ed*]

e|-----------------------------------------------------------------|
B|-----------------------------------------------------------------|
G|-----------------------------------------------------------------|
D|-----------------------------------------------------------------|
A|-----------------6-6-6-6-6-6-6-6-4-4-4-4-4-4-4-4-----------------|
E|-2-2-2-2-2-2-2-2---------------------------------1-1-1-1-1-1-1-1-|
Suggest correction
Creating personal tab
Creating personal tab
You can edit any tab online and save it as your Personal.

You can edit, replace or remove any tab part or add personal notes – all changes will be seen only by you.

Personal tabs can be accessed anytime from any device, even offline.
Learn more »
comments
print report bad tab
6 comments total. Showing first comments.
+4 reply
The420Champion 10 Apr 06, 2016 08:35 PM

perfect. Thanks a lot man, we could use some more Protomartyr tabs around here

+1 reply
trippytaylorkus 10 Jul 15, 2017 11:48 PM

i actually met the guys from protomartyr at a show and Greg sends me tabs to whatever song i request now, i have this full tab and couple others. i just don't know how to upload it on here. I'll drop the links for you guys if you want though

+1 reply
trippytaylorkus 10 Jul 19, 2017 02:12 PM

Alright so i requested it and Greg says it'll take him a min but he'll definitely send it to me. I'll post the link here for you when i get it along with any directions from him

guest
You may want to rate the tab now too:
select rating
Wanna post a correction for this tab? Suggest correction