Oops, an error
Loading. Please wait.

Pontiac 87 tab

772 views 18 this week
3 commentsread comments
1 2 3 4 5
x 3
add to favorites
×
Save as Personal and add changes to this tab that will be seen only by you. Learn more ›
×
You can save this tab as Personal to edit and correct it or add notes. All changes will be seen only by you. Learn more »
launch autoscroll
font size
0
reset
how to read this tab
guitar tuner
edit
Autoscroll
slow
fast
+/-
esc
set tempo
stop
Author
Difficulty
Tabbed by: Katie Winter
Song: Pontiac 87 
Artist: Protomartyr
Album: The Agent Intellect (2015)

I wanted to make a tab of this song because there are literally no tabs for it anywhere.
So I have made this for everyone. :-) Enjoy!


[Intro] 

e|---------------------------------------------------------------------------|
B|---------------------------------------------------------------------------|
G|-7-7-7-7-7-7--6-6-6-6-6-6--4-4-4--2-2--4-4-4--2-2--7-7-7-7-7-7--6-6-6-6-6--|
D|---------------------------------------------------------------------------|
A|---------------------------------------------------------------------------|
E|---------------------------------------------------------------------------|
                                                                               x2
e|---------------------------------------------------------------------------|
B|---------------------------------------------------------------------------|
G|-4-4-4--2-2--4-4-4--2-2----------------------------------------------------|
D|---------------------------------------------------------------------------|
A|---------------------------------------------------------------------------|
E|---------------------------------------------------------------------------|


[Verse 1] 

e|---------------------------------------------------------------------------|
B|---------------------------------------------------------------------------|
G|-7-7-7-7-7-7--6-6-6-6-6-6--4-4-4--2-2--4-4-4--2-2--7-7-7-7-7-7--6-6-6-6-6--|
D|---------------------------------------------------------------------------|
A|---------------------------------------------------------------------------|
E|---------------------------------------------------------------------------|
                                                                               x4
e|---------------------------------------------------------------------------|
B|---------------------------------------------------------------------------|
G|-4-4-4--2-2--4-4-4--2-2----------------------------------------------------|
D|---------------------------------------------------------------------------|
A|---------------------------------------------------------------------------|
E|---------------------------------------------------------------------------|


[Chorus] 

e|--------10-10-10--12-12-12-------------------------------------------------|
B|-9-9-9--10-10-10--12-12-12-------------------------------------------------|
G|-9-9-9--9--9--9---11-11-11--9-11~-13---------------------------------------|
D|-7-7-7---------------------------------------------------------------------| x4
A|---------------------------------------------------------------------------|
E|---------------------------------------------------------------------------|


[Verse 2] 


e|---------------------------------------------------------------------------|
B|---------------------------------------------------------------------------|
G|-7-7-7-7-7-7--6-6-6-6-6-6--4-4-4--2-2--4-4-4--2-2--7-7-7-7-7-7--6-6-6-6-6--|
D|---------------------------------------------------------------------------|
A|---------------------------------------------------------------------------|
E|---------------------------------------------------------------------------|
                                                                               x6
e|---------------------------------------------------------------------------|
B|---------------------------------------------------------------------------|
G|-4-4-4--2-2--4-4-4--2-2----------------------------------------------------|
D|---------------------------------------------------------------------------|
A|---------------------------------------------------------------------------|
E|---------------------------------------------------------------------------|


[Chorus] \

e|--------10-10-10--12-12-12-------------------------------------------------|
B|-9-9-9--10-10-10--12-12-12-------------------------------------------------|
G|-9-9-9--9--9--9---11-11-11--9-11~-13---------------------------------------|
D|-7-7-7---------------------------------------------------------------------| x4
A|---------------------------------------------------------------------------|
E|---------------------------------------------------------------------------|


[Verse 3]  

e|---------------------------------------------------------------------------|
B|---------------------------------------------------------------------------|
G|-7-7-7-7-7-7--6-6-6-6-6-6--4-4-4--2-2--4-4-4--2-2--7-7-7-7-7-7--6-6-6-6-6--|
D|---------------------------------------------------------------------------|
A|---------------------------------------------------------------------------|
E|---------------------------------------------------------------------------|
                                                                               x3
e|---------------------------------------------------------------------------|
B|---------------------------------------------------------------------------|
G|-4-4-4--2-2--4-4-4--2-2----------------------------------------------------|
D|---------------------------------------------------------------------------|
A|---------------------------------------------------------------------------|
E|---------------------------------------------------------------------------|


[Before Solo]

e|---------------------------------------------------------------------------|
B|---------------------------------------------------------------------------|
G|-7-7-7-7-7-7--6-6-6-6-6-6--4-4-4--2-2--4-4-4--2-2--7-7-7-7-7-7--6-6-6-6-6--|
D|---------------------------------------------------------------------------|
A|---------------------------------------------------------------------------|
E|---------------------------------------------------------------------------|

e|---------------------------------------------------------------------------|
B|---------------------------------------------------------------------------|
G|-4-4-4-4-4-4-4-4-----------------------------------------------------------|
D|---------------------------------------------------------------------------|
A|---------------------------------------------------------------------------|
E|---------------------------------------------------------------------------|


[Solo]  

e|---------------------------------------------------------------------------|
B|---------------------------------------------------------------------------|
G|-6-6-6-6--9-9-9--11-11-11--9-11-13-13-13-11-13-14-14-14-13-13-13-6-6-9-9---|
D|---------------------------------------------------------------------------|
A|---------------------------------------------------------------------------|
E|---------------------------------------------------------------------------|
                                                                               x2
e|---------------------------------------------------------------------------|
B|---------------------------------------------------------------------------|
G|-9-6-6-6-------------------------------------------------------------------|
D|---------------------------------------------------------------------------|
A|---------------------------------------------------------------------------|
E|---------------------------------------------------------------------------|

"There's no use being sad about it..." (x4)

e|---------------------------------------------------------------------------|
B|---------------------------------------------------------------------------|
G|-6-6-6-6--9-9-9--11-11-11--9-11-13-13-13-11-13-14-14-14-13-13-13-6-6-9-9---|
D|---------------------------------------------------------------------------|
A|---------------------------------------------------------------------------|
E|---------------------------------------------------------------------------|

e|---------------------------------------------------------------------------|
B|---------------------------------------------------------------------------|
G|-9-6-6-6-------------------------------------------------------------------|
D|---------------------------------------------------------------------------|
A|---------------------------------------------------------------------------|
E|---------------------------------------------------------------------------|


[Outro] 

Repeat until end.


e|---------------------------------------------------------------------------|
B|---------------------------------------------------------------------------|
G|-7-7-7-7-7-7--6-6-6-6-6-6--4-4-4--2-2--4-4-4--2-2--7-7-7-7-7-7--6-6-6-6-6--|
D|---------------------------------------------------------------------------|
A|---------------------------------------------------------------------------|
E|---------------------------------------------------------------------------|

e|---------------------------------------------------------------------------|
B|---------------------------------------------------------------------------|
G|-4-4-4--2-2--4-4-4--2-2----------------------------------------------------|
D|---------------------------------------------------------------------------|
A|---------------------------------------------------------------------------|
E|---------------------------------------------------------------------------|



************************************

| x  Dead note
| ~  Vibrato

************************************

            
            
Suggest correction
Creating personal tab
Creating personal tab
You can edit any tab online and save it as your Personal.

You can edit, replace or remove any tab part or add personal notes – all changes will be seen only by you.

Personal tabs can be accessed anytime from any device, even offline.
Learn more »
Give kudos to tab author, rate the tab!
1 2 3 4 5
comments
print report bad tab
3 comments total.
0 reply
RastaStarfish 10 Jun 18, 2016 06:09 AM, edited at 10:10 am

Hey man, thanks for the tab. I watched some footage of them playing and figured out the verse: D|--12-12-12-12-12-12--11-11-11-11-11-11--9-9-9---------9-9-9-------------------|A|----------------------------------------------12-9-12-------12--9------------|Not really sure what chords they are though.

+1 reply
RastaStarfish 10 Jun 18, 2016 06:11 AM

Hey man, thanks for the tab. I watched some footage of them playing and figured out the verse:

D|--12-12-12-12-12-12--11-11-11-11-11-11--9-9-9---------9-9-9-------------------|
A|----------------------------------------------12-9-12-------12--9------------|

Not really sure what chords they are though.

0 reply
juball 20 Jul 27, 2016 12:58 PM

cheers for tab, shall try it soon

guest
You may want to rate the tab now too:
select rating
Wanna post a correction for this tab? Suggest correction