Oops, an error
Loading. Please wait.

Seed Tab

version 1
version 1

Whole song

Interactive

812 views 1 this week
1 commentread comment
1 2 3 4 5
excellent!
x 5
add to favorites
launch autoscroll
font size
0
reset
how to read this tab
guitar tuner
Autoscroll
slow
fast
+/-
esc
set tempo
stop
Help us to improve Ultimate-Guitar.com Take our survey!
×
Author
Difficulty
Tuning
intermediate
D A D G B E
TAB BY DIEGO JOSE GONZALEZ snakepit_diego@hotmail.com 
http://www.youtube.com/user/diegojosegonzalez


Seed – Prototype
Continuum 2006


Main Riff
e|------------------------|----------------------------|
B|------------------------|----------------------------|
G|------------------------|----------------------------|
D|-------0h2p0---3---2----|-------0h2p0---3---2---0----|
A|-0-0-0-------3---3---1-1|-0-0-0-------3---3---3------|
D|-0-0-0---------------1-1|-0-0-0----------------------|
 |   Two first times            Third time
 |
e|------------------------|----------------------------|
B|------------------------|----------------------------|
G|------------------------|----------------------------|
D|------------------------|----------------------------|
A|-0-0-0---------------1-1|-0-0-0----------------------|
D|-0-0-0---------------1-1|-0-0-0----------------------|
Pm - - -       -   -  - -   - - -      -   -   -


e|--------------------------|--------------------------|
B|--------------------------|--------------------------|
G|--------------------------|---------------------2----|
D|-----0---2---3---2---0h2p0|-----2---3---5---3-----3--|
A|-1-1---1---1---1---1------|-4-4---4---4---4---4------|
D|--------------------------|--------------------------|
Pm A string

Then both guitars play the same (main riff)


Variation of main riff (palm mute is obvious)
e|--------------------------------------------------------------------------|
B|--------------------------------------------------------------------------|
G|--------------------------------------------------------------------------|
D|-------0h2p0---3---2---0-------0h2p0---3---2---0-------0h2p0---3---2---0--|
A|-------------3---3---3---------------3---3---3---------------3---3---3----|
D|-0-0-0-------------------2-2-2-------------------3-3-3--------------------|
 |
 |
e|--------------------------------------------------------------------------|
B|--------------------------------------------------------------------------|
G|--------------------------------------------------------------------------|
D|-(0)--------------------(2)----------------------(5)----------------------|
A|-(0)--------------------(2)----------------------(3)----------------------|
D|-(0)--------------------(2)----------------------(3)----------------------|

-----------------------------------------------------------------------------|
-----------------------------------------------------------------------------|
-----------------------------------------------------------------------------|
-------0h2p0---3---2---0-------0h2p0---3---2---0-------0h2p0---3---2--3------|
-1-1-1-------3---3---3---0-0-0-------3---3---3---4-4-4-------3---3---3-------|
-----------------------------------------------------------------------------|

-----------------------------------------------------------------------------|
-(1)-------------------------------------------------------------------------|
-(3)---------------------(2)-------------------------------------------------|
-(3)---------------------(0)---------------------(6)-------------------------|
-(1)---------------------(0)---------------------(4)-------------------------|
-(1)---------------------(0)---------------------(4)-------------------------|


--------------------------------------------------------|
--------------------------------------------------------|
--------------------------------------------------------|
--------0h2p0---3---2---3----------------------3p0------|
--5-5-5-------3---3---3----5-5-5-5-5-5-5-5p0------------|
---------------------------------------------0-----0----|


--------------------------------------------------------|
--------------------------------------------------------|
-(7)----------------------------------------------------|
-(7)-------------------------------------------3p0------|
-(5)-----------------------5-5-5-5-5-5-5-5p0------------|
---------------------------------------------0-----0----|


Verses    Learning to fly…
e|------------------------------------------------------------------|
B|------------------------------------------------------------------|
G|------------------------------------------------------------------|
D|-------2---3-(x2)------2---3(x2)------2---3(x2)-------2---3(x2)---|
A|-------0---0-----------0---0----------0---0-----1-1-1-1-1-1-------|
D|-0-0-0---0-------2-2-2---2------3-3-3---0-------------------------|


-----------------------------------------------------------------|
-----------------------------------------------------------------|
-----------------------------------------------------------------|
-------2---3(x2)------2---3(x2)-------2---3-(x2)-------2---3(x2)-|
-0-0-0-0-0-0-----4-4-4-4-4-4----5-5-5-5-5-5------------0---0-----|
-------------------------------------------------0-0-0---0-------|


Bridge

e|--------------------------------------------------------------|
B|-/3-----------------------------------------------------------|
G|---------------3----------------------------------------------|
D|---------------------------5------------/7--------------------|
A|--------------------------------------------------------------|
D|--------------------------------------------------------------|
 |
 |
e|--------------------------------------------------------------|
B|--------------------------------------------------------------|
G|-/2-----------------------------------------------------------|
D|---------------3-----------0-------------2--------------------|
A|--------------------------------------------------------------|
D|--------------------------------------------------------------|
 |
 | Clean Tone W/echo
e|--------------------------------------------------------------|
B|---------------------------------------------1---3p1----------|
G|-----2-2----2-2----2-2---2-2----2-2---2-2---0-------0---------|
D|---0------0------0-----0------0-----0------2----------2h3p2---|
A|--0-0----0-0----1-1---1-1----2-2---2-2----3----3--------------|
D|--------------------------------------------------------------|


e|--------------------------------------------------------------|
B|-/3------------3-----------------------/5---------------------|
G|---------------------------4----------------------------------|
D|--------------------------------------------------------------|
A|--------------------------------------------------------------|
D|--------------------------------------------------------------|
 |
 |
e|--------------------------------------------------------------|
B|--------------------------------------------------------------|
G|-/2------------3-----------------------/5---------------------|
D|--------------------------5-----------------------------------|
A|--------------------------------------------------------------|
D|--------------------------------------------------------------|
 |
 |
e|--------------------------------------------------------------|
B|---------------------------------------------1---3p1----------|
G|-----2-2----2-2----2-2---2-2----2-2---2-2---0-------0---------|
D|---0------0------0-----0------0-----0------2----------2h3p2---|
A|--0-0----0-0----1-1---1-1----2-2---2-2----3----3--------------|
D|--------------------------------------------------------------|

Repeat

Variation of main riff
Verses
Bridge


e|-------------------------------------------------------------------------------------|
B|---------------------------------------------------------------------------------2---|
G|----------------------------------------0---2---3---2---0h2p0-----2---3--5---3-----3-|
D|------------------------------------1-1---1---1---1---1-------4-4---4--4---4---4-----|
A|-0-0-0----2-2-0-0-0----2-2-0-0-0-----------------------------------------------------|
D|-0-0-0----2-2-0-0-0----2-2-0-0-0-----------------------------------------------------|

Pre-Solo
  Use Volume Control
e|--------------------------------------------------------------|
B|--------------------------------------------------------------|
G|--------------------------------------------------------------|
D|--------------------------------------------------------------|
A|--------------------------------------------------------------|
D|-(0)----(2)-----(3)-----(8)-----(7)-----(11)----(12)----------|
 |
 |
e|--------------------------------------------------------------|
B|---6---6---6---6---6---6---6---6---6---6---6---6---6---6--6---|
G|--9-9-9-9-9-9-9-9-9-9-9-9-9-9-9-9-9-9-9-9-9-9-9-9-9-9-9-9-9---|
D|-7---7---7---7---7---7---7---7---7---7---7---7---7---7----7---|
A|--------------------------------------------------------------|
D|--------------------------------------------------------------|


Solo

e|-------------------------------------------------------------------------------------|
B|-/15~-p13h15-17-19-17-15-17-15-13-15-13----13----------------------------------------|
G|----------------------------------------15----15-14-15-14\12h14br12\9h10p9-7h9p7-5/9~|
D|-------------------------------------------------------------------------------------|
A|-------------------------------------------------------------------------------------|
D|-------------------------------------------------------------------------------------|

e|-12p8------------8h12p8h12p8-----8h12p8h12p9------------9h12p8h12p9-----9h12p9-------|
B|-----10--------10-----------10-10-----------10--------10-----------10-10------10-----|
G|-------9------9---------------9---------------9------9---------------9----------9----|
D|--------10--10---------------------------------10--10----------------------------12~-|
A|----------12-------------------------------------12----------------------------------|
D|-------------------------------------------------------------------------------------|

e|-------------------------------------------10h13p10----------------------------------|
B|-----------------------------------------11--------11--------------------------------|
G|----------------------9h10-9br-7-9-----10------------10------------------------------|
D|-7---------------/12~----------------10----------------10---12-14-15-15br-15-14------|
A|---8-5~----------------------------12--------------------12--------------------------|
D|-----------7-5-0~--------------------------------------------------------------------|

e|-----17-------------17----19-19fb------------------(22)---------------------|
B|---17--17-15fb----17--17-----------17-18-15~-----22-------------------------|
G|-17-------------18-----------------------------19---------------------------|
D|----------------------------------------------------------------------------|
A|----------------------------------------------------------------------------|
D|----------------------------------------------------------------------------|
Suggest correction new What's this?
You can suggest a correction to this tab. Community and Mods will review your correction and vote to approve or reject it.
comments
print report bad tab
1 comment total.
0 reply
Asterix_13 1,122 wrote on March 25 2010, 09:00 pm

Man I love this band. Any chance you could tab out the song "Shine"?

5*

guest
You may want to rate the tab now too:
select rating
Please do not post tabs as comments. Select "correction" instead!