Oops, an error
Loading. Please wait.

The Way It Ends bass

version 1
version 1

Whole song

Interactive

1,660 views 1 this week
1 commentread comment
1 2 3 4 5
1 last vote to show rating
add to favorites
×
Save as Personal and add changes to this tab that will be seen only by you. Learn more ›
×
You can save this tab as Personal to edit and correct it or add notes. All changes will be seen only by you. Learn more »
launch autoscroll
font size
0
reset
guitar tuner
backing track
0:00
0:00
edit
Autoscroll
slow
fast
+/-
esc
set tempo
stop
Intro

|----------------------------------------------------------|
|----------------------------------------------------------|
|----------------------------------------------------------|
|-8--7--4--7--10--8--7--4--7--10--8--7--4--7--10--8--7--4--|

|----------------------------------------------------------|
|----------------------------------------------------------|
|----------------------------------------------------------|
|-7--10----------------------------------------------------|

Verse

|----------------------------------------------------------|
|----------------------------------------------------------|
|-1-1-1-1-1-1-1-1-1-1-1-1-1-1-1-1--1-1-1-1-1-1-1-1-1-1-1-1-|
|----------------------------------------------------------|

|----------------------------------------------------------|
|----------------------------------------------------------|
|1-1-1-1--1-1-1-1-1-1-1-1-1-1-1-1-1-1-1-1--1-1-1--0-0-0-0-0|
|----------------------------------------------------------|


|----------------------------------------------------------|
|----------------------------------------------------------|
|-0-0-0-0-0-0-0-0-0-0-0--0-0-0-0-0-0-0-0-0-0-0-0-0-0-0-0--0|
|----------------------------------------------------------|


|----------------------------------------------------------|
|----------------------------------------------------------|
|-0-0-0-0-0-0-0-0-0-0-0-0-0-0-0--0-0-0-0-0-0-0-0-0-0-0-0-0-|
|----------------------------------------------------------|


|----------------------------------------------------------|
|----------------------------------------------------------|
|0-0-0--1-1-1-1-1-1-1-1-1-1-1-1-1-1-1-1--1-1-1-1-1-1-1-1-1-|
|----------------------------------------------------------|


|----------------------------------------------------------|
|----------------------------------------------------------|
|1-1-1-1-1-1-1--1-1-1-1-1-1-1-1-1-1-1-1-1-1-1-1--1-1-1--0-0|
|----------------------------------------------------------|


|----------------------------------------------------------|
|----------------------------------------------------------|
|-0-0-0-0-0-0-0-0-0-0-0-0-0-0--0-0-0-0-0-0-0-0-0-0-0-0-0-0-|
|----------------------------------------------------------|


|----------------------------------------------------------|
|----------------------------------------------------------|
|0--0-0-0-0-0-0-0-0-0-0-0-0-0-0-0-0--0-0-0-0-0-0-0-0-0-0-0-|
|----------------------------------------------------------|

            Pre chorus
|----------------------------------------------------------|
|----------------------------------------------------------|
|0-0-0-0-0--4-4-4-4-4-4-4-4-4-4-4-4-4-4-4-4--4-4-4-4-4-4-4-|
|----------------------------------------------------------|


|----------------------------------------------------------|
|----------------------------------------------------------|
|4-4-4-4-4-4-4-4-4--3-3-3-3-3-3-3-3-3-3-3-3-3-3-3-3--3-3-3-|
|----------------------------------------------------------|


|----------------------------------------------------------|
|----------------------------------------------------------|
|3-3-3-3-3-3-3-3-3-3-3-3-3--4-4-4-4-4-4-4-4-4-4-4-4-4-4-4-4|
|----------------------------------------------------------|

|----------------------------------------------------------|
|----------------------------------------------------------|
|--4-4-4-4-4-4-4-4-4-4-4-4-4-4-4-4--7-7-7-7-7-7-7-7-7-7-7-7|
|----------------------------------------------------------|


|----------------------------------------------------------|
|----------------------------------------------------------|
|-7-7-7-7--6-6-6-6-6-6-6-6-6-6-6-6-6-6-6-6--4-4-4-4-4-4-4-4|
|----------------------------------------------------------|


|----------------------------------------------------------|
|----------------------------------------------------------|
|-4-4-4-4-4-4-4-4--4-4-4-4-4-4-4-4-4-4-4-4-4-4-4-4--3-3-3-3|
|----------------------------------------------------------|


|----------------------------------------------------------|
|----------------------------------------------------------|
|-3-3-3-3-3-3-3-3-3-3-3-3--3-3-3-3-3-3-3-3-3-3-3-3-3-3-3-3-|
|----------------------------------------------------------|


|----------------------------------------------------------|
|----------------------------------------------------------|
|-4-4-4-4-4-4-4-4-4-4-4-4-4-4-4-4--4-4-4-4-4-4-4-4-4-4-4-4-|
|----------------------------------------------------------|


|----------------------------------------------------------|
|----------------------------------------------------------|
|4-4-4-4--6--6--6--6--1-1-1-1-1-1-1-1-1-1-1-1-1-1-1-1--1-1-|
|----------------------------------------------------------|


|----------------------------------------------------------|
|----------------------------------------------------------|
|1-1-1-1-3-3-3-3-3-3-4-4-4-4--4-4-4-4-4-4-4-4-4-4-4-4-4-4-4|
|----------------------------------------------------------|


|----------------------------------------------------------|
|----------------------------------------------------------|
|-4--6-6-6-6-6-6-4-4-4-4-4-4-3-3-3-3-----------------------|
|-------------------------------------4-4-4-4-4-4-4-4-4-4-4|


|----------------------------------------------------------|
|----------------------------------------------------------|
|----------------------------------------------------------|
|-4-4-4-4-4--4-4-4-4-4-4-6-6-6-6-6-6-4-4-4-4--3-3-3-3-3-3-3|


|----------------------------------------------------------|
|----------------------------------------------------------|
|----------------------------------------------------------|
|-3-3-3-3-3-3-3-3-3--3-3-3-3-3-3-3-3-3-3-3-3-3-3-3-3-------|

|----------------------------------------------------------|
|----------------------------------------------------------|
|1-1-1-1-1-1-1-1-1-1-1-1-1-1-1-1--1-1-1-1-1-1-3-3-3-3-3-3-4|
|----------------------------------------------------------|


|----------------------------------------------------------|
|----------------------------------------------------------|
|-4-4-4-4--4-4-4-4-4-4-4-4-4-4-4-4-4-4-4-4--6-6-6-6-6-6-4-4|
|----------------------------------------------------------|


|----------------------------------------------------------|
|----------------------------------------------------------|
|-4-4-4-4-3-3-3-3------------------------------------------|
|------------------4-4-4-4-4-4-4-4-4-4-4-4-4-4-4-4--4-4-4-4|


|----------------------------------------------------------|
|----------------------------------------------------------|
|----------------------------------------------------------|
|4-4-6-6-6-6-6-6-4-4-4-4--3-3-3-3-3-3-3-3-3-3-3-3-3-3-3-3--|


|----------------------------------------------------------|
|----------------------------------------------------------|
|----------------------------------------1--0-----0--------|
|3-3-3-3-3-3-3-3-3-3-3-3-3-3-3-3---1--0--------4-----------|

Verse 2

|----------------------------------------------------------|
|----------------------------------------------------------|
|1-1-1-1-1-1-1-1-1-1-1-1-1-1-1-1--1-1-1-1-1-1-1-1-1-1-1-1-1|
|----------------------------------------------------------|

|----------------------------------------------------------|
|----------------------------------------------------------|
|-1-1-1--1-1-1-1-1-1-1-1-1-1-1-1-1-1-1-1--1-1-1--0-0-0-0-0-|
|----------------------------------------------------------|

|----------------------------------------------------------|
|----------------------------------------------------------|
|0-0-0-0-0-0-0-0-0-0-0--0-0-0-0-0-0-0-0-0-0-0-0-0-0-0-0--0-|
|----------------------------------------------------------|

|----------------------------------------------------------|
|----------------------------------------------------------|
|0-0-0-0-0-0-0-0-0-0-0-0-0-0-0--1-1-1-1-1-1-1-1-1-1-1-1-1-1|
|----------------------------------------------------------|

|----------------------------------------------------------|
|----------------------------------------------------------|
|-1-1--1-1-1-1-1-1-1-1-1-1-1-1-1-1-1-1--1-1-1-1-1-1-1-1-1-1|
|----------------------------------------------------------|

|----------------------------------------------------------|
|----------------------------------------------------------|
|-1-1-1-1-1-1--1-1-1--0-0-0-0-0-0-0-0-0-0-0-0-0-0-0-0--0-0-|
|----------------------------------------------------------|

|----------------------------------------------------------|
|----------------------------------------------------------|
|0-0-0-0-0-0-0-0-0-0-0-0-0-0--0-0-0-0-0-0-0-0-0-0-0-0-0-0-0|
|----------------------------------------------------------|

|----------------------------------------------------------|
|----------------------------------------------------------|
|-0--0-0-0-0-0-0-0-0-0-0-0-0-0-0-0-0-----------------------|
|----------------------------------------------------------|

Pre chorus

|----------------------------------------------------------|
|----------------------------------------------------------|
|-4-4-4-4-4-4-4-4-4-4-4-4-4-4--4-4-4-4-4-4-4-4-4-4-4-4-4-4-|
|----------------------------------------------------------|

|----------------------------------------------------------|
|----------------------------------------------------------|
|4-4--3-3-3-3-3-3-3-3-3-3-3-3-3-3-3-3--3-3-3-3-3-3-3-3-3-3-|
|----------------------------------------------------------|

|----------------------------------------------------------|
|----------------------------------------------------------|
|3-3-3-3-3-3--4-4-4-4-4-4-4-4-4-4-4-4-4-4-4-4--4-4-4-4-4-4-|
|----------------------------------------------------------|

|----------------------------------------------------------|
|----------------------------------------------------------|
|4-4-4-4-4-4-4-4-4-4--7-7-7-7-7-7-7-7-7-7-7-7-7-7-7-7--6-6-|
|----------------------------------------------------------|

|----------------------------------------------------------|
|----------------------------------------------------------|
|6-6-6-6-6-6-6-6-6-6-6-6-6-6--4-4-4-4-4-4-4-4-4-4-4-4-4-4-4|
|----------------------------------------------------------|

|----------------------------------------------------------|
|----------------------------------------------------------|
|-4--4-4-4-4-4-4-4-4-4-4-4-4-4-4-4-4--3-3-3-3-3-3-3-3-3-3-3|
|----------------------------------------------------------|

|----------------------------------------------------------|
|----------------------------------------------------------|
|-3-3-3-3-3--3-3-3-3-3-3-3-3-3-3-3-3-3-3-3-3--4-4-4-4-4-4-4|
|----------------------------------------------------------|

|----------------------------------------------------------|
|----------------------------------------------------------|
|-4-4-4-4-4-4-4-4-4--4-4-4-4-4-4-4-4-4-4-4-4-4-4-4-4--6--6-|
|----------------------------------------------------------|
  
       Chorus

|----------------------------------------------------------|
|----------------------------------------------------------|
|6-6--1-1-1-1-1-1-1-1-1-1-1-1-1-1-1-1--1-1-1-1-1-1-3-3-3-3-|
|----------------------------------------------------------|

|----------------------------------------------------------|
|----------------------------------------------------------|
|3-3-4-4-4-4--4-4-4-4-4-4-4-4-4-4-4-4-4-4-4-4--6-6-6-6-6-6-|
|----------------------------------------------------------|

|----------------------------------------------------------|
|----------------------------------------------------------|
|4-4-4-4-4-4-3-3-3-3-3-3-----------------------------------|
|------------------------4-4-4-4-4-4-4-4-4-4-4-4-4-4-4-4--4|

|----------------------------------------------------------|
|----------------------------------------------------------|
|----------------------------------------------------------|
|-4-4-4-4-4-6-6-6-6-6-6-4-4-4-4-3-3-3-3-3-3-3-3-3-3-3-3-3-3|

|----------------------------------------------------------|
|----------------------------------------------------------|
|--------------------------------------1-1-1-1-1-1-1-1-1-1-|
|3-3--3-3-3-3-3-3-3-3-3-3-3-3-3-3-3-3----------------------|


|----------------------------------------------------------|
|----------------------------------------------------------|
|1-1-1-1-1-1--1-1-1-1-1-1-3-3-3-3-3-3-4-4-4-4--4-4-4-4-4-4-|
|----------------------------------------------------------|


|----------------------------------------------------------|
|----------------------------------------------------------|
|4-4-4-4-4-4-4-4-4-4-6-6-6-6-6-6-4-4-4-4-4-4-3-3-3-3-------|
|-----------------------------------------------------4-4-4|


|----------------------------------------------------------|
|----------------------------------------------------------|
|----------------------------------------------------------|
|-4-4-4-4-4-4-4-4-4-4-4-4-4--4-4-4-4-4-4-6-6-6-6-6-6-4-4-4-|


|----------------------------------------------------------|
|----------------------------------------------------------|
|----------------------------------------------------------|
|4--3-3-3-3-3-3-3-3-3-3-3-3-3-3-3-3---3--3--3--3--3--3--3--|

      Interlude
|----------------------------------------------------------|
|----------------------------------------------------------|
|------1-------------------------1-------------------------|
|3-----------4-------4-------3---------4------1------3-----|

 Mosh rift
|----------------------------------------------------------|
|----------------------------------------------------------|
|----------------------------------------------------------|
|8-8-8---8---8--8-8-8---8---8--4-4-4---4--4---4--4-4-4---4-|

|----------------------------------------------------------|
|----------------------------------------------------------|
|----------------------------------------------------------|
|--4---1-1-1--1---1--1-1-1-1----1----1-----3-3-3---3----3--|

|----------------------------------------------------------|
|----------------------------------------------------------|
|----------------------------------------------------------|
|3-3-3---3---3---8-8-8--8--8--8-8-8--8--8--4-4-4--4--4--4-4|

|----------------------------------------------------------|
|----------------------------------------------------------|
|----------------------------------------------------------|
|-4--4---4---1-1-1---1---1--1-1-1---1---1--3-3-3--3--3--3-3|

|----------------------------------------------------------|
|----------------------------------------------------------|
|----------------------------------------------------------|
|-3--3---3-------------------------------------------------|

 Gutair solo
|----------------------------------------------------------|
|----------------------------------------------------------|
|-1-1-1-1-1-1-1-1-1-1-1-1-1-1-1-1--------------------------|
|----------------------------------4-4-4-4-4-4-4-4-4-4-4-4-|

|----------------------------------------------------------|
|----------------------------------------------------------|
|----------------------------------------------------------|
|4-4-4-4--1-1-1-1-1-1-1-1-1-1-1-1-1-1-1-1--3-3-3-3-3-3-3-3-|

|----------------------------------------------------------|
|----------------------------------------------------------|
|-----------------1-1-1-1-1-1-1-1-1-1-1-1-1-1-1-1----------|
|3-3-3-3-3-3-3-3-----------------------------------4-4-4-4-|

|----------------------------------------------------------|
|----------------------------------------------------------|
|----------------------------------------------------------|
|4-4-4-4-4-4-4-4-4-4-4-4--1-1-1-1-1-1-1-1-1-1-1-1-1-1-1-1--|

|----------------------------------------------------------|
|----------------------------------------------------------|
|----------------------------------------------------------|
|1-1-1-1-1-1-1-1-1-1-1-1-1-1-1-1--3-3-3-3-3-3-3-3-3-3-3-3-3|
         Post-solo
|----------------------------------------------------------|
|----------------------------------------------------------|
|----------------------------------------------------------|
|-3-3-3----8-----7-----4-----2---10-----8------7-------4---|
              Gutair solo 2
|----------------------------------------------------------|
|----------------------------------------------------------|
|-------------1-1-1-1-1-1-1-1-1-1-1-1-1-1-1-1--1-1-1-1-1-1-|
|--7---10--------------------------------------------------|

|----------------------------------------------------------|
|----------------------------------------------------------|
|1-1-1-1-1-1-1-1-1-1--1-1-1-1-1-1-1-1-1-1-1-1-1-1-1-1--1-1-|

|----------------------------------------------------------|
|----------------------------------------------------------|
|1--0-0-0-0-0-0-0-0-0-0-0-0-0-0-0-0--0-0-0-0-0-0-0-0-0-0-0-|
|----------------------------------------------------------|

|----------------------------------------------------------|
|----------------------------------------------------------|
|0-0-0-0-0--0-0-0-0-0-0-0-0-0-0-0-0-0-0-0-0--1-1-1-1-1-1-1-|
|----------------------------------------------------------|

|----------------------------------------------------------|
|----------------------------------------------------------|
|1-1-1-1-1-1-1-1-1--1-1-1-1-1-1-1-1-1-1-1-1-1-1-1-1--1-1-1-|
|----------------------------------------------------------|

|----------------------------------------------------------|
|----------------------------------------------------------|
|1-1-1-1-1-1-1-1-1-1-1-1-1---1-1-1---0-0-0-0-0-0-0-0-0-0-0-|
|----------------------------------------------------------|

|----------------------------------------------------------|
|----------------------------------------------------------|
|0-0-0-0-0--0-0-0-0-0-0-0-0-0-0-0-0-0-0-0-0--0-0-0-0-0-0-0-|
|----------------------------------------------------------|

|----------------------------------------------------------|
|----------------------------------------------------------|
|0-0-0-0-0-0-0-0-0--0-0-0-0-0-0-0-0-0-0-0-0-0-0-0-0--0-0-0-|
|----------------------------------------------------------|
                           Outro chorus   
|----------------------------------------------------------|
|----------------------------------------------------------|
|0-0-0-0-0-0-0-0-0-0-0-0-0--1-1-1-1-1-1-1-1-1-1-1-1-1-1-1-1|
|----------------------------------------------------------|

|----------------------------------------------------------|
|----------------------------------------------------------|
|--1-1-1-1-1-1-3-3-3-3-3-3-4-4-4-4--4-4-4-4-4-4-4-4-4-4-4-4|
|----------------------------------------------------------|

|----------------------------------------------------------|
|----------------------------------------------------------|
|4-4-4-4--4-4-4-4-4-4-6-6-6-6-6-6-4-4-4-4--3-3-3-3-3-3-3-3-|

|----------------------------------------------------------|
|----------------------------------------------------------|
|3-3-3-3-3-3-3-3-------------------------------------------|
|-----------------4-4-4-4-4-4-4-4-4-4-4-4-4-4-4-4--4-4-4-4-|

|----------------------------------------------------------|
|----------------------------------------------------------|
|----------------------------------------------------------|
|4-4-6-6-6-6-6-6-4-4-4-4--3-3-3-3-3-3-3-3-3-3-3-3-3-3-3-3--|

|----------------------------------------------------------|
|----------------------------------------------------------|
|---------------------------------1-1-1-1-1-1-1-1-1-1-1-1-1|
|3-3-3-3-3-3-3-3-3-3-3-3-3-3-3-3---------------------------|

|----------------------------------------------------------|
|----------------------------------------------------------|
|-1-1-1--1-1-1-1-1-1-3-3-3-3-3-3-4-4-4-4--4-4-4-4-4-4-4-4-4|
|----------------------------------------------------------|

|----------------------------------------------------------|
|----------------------------------------------------------|
|-4-4-4-4-4-4-4--6-6-6-6-6-6-4-4-4-4-4-4-3-3-3-3-----------|
|-------------------------------------------------4-4-4-4-4|

|----------------------------------------------------------|
|----------------------------------------------------------|
|----------------------------------------------------------|
|-4-4-4-4-4-4-4-4-4-4-4--4-4-4-4-4-4-6-6-6-6-6-6-4-4-4-4--3|

|----------------------------------------------------------|
|----------------------------------------------------------|
|----------------------------------------------------------|
|3-3-3-3-3-3-3-3-3-3-3-3-3-3-3-3--3-3-3-3-3-3-3-3-3-3-3-3-3|

|----------------------------------------------------------|
|----------------------------------------------------------|
|--------------1--0-----1----1-----------------------------|
|-3-3-3--1--0--------4-------------------------------------|
Suggest correction
Creating personal tab
Creating personal tab
You can edit any tab online and save it as your Personal.

You can edit, replace or remove any tab part or add personal notes – all changes will be seen only by you.

Personal tabs can be accessed anytime from any device, even offline.
Learn more »
Give kudos to tab author, rate the tab!
1 2 3 4 5
comments
print report bad tab
1 comment total.
0 reply
ManWhoSmokes 199 Jul 12, 2008 05:31 PM

sorry dude these tabs are nor right.

guest
You may want to rate the tab now too:
select rating
Wanna post a correction for this tab? Suggest correction