Oops, an error
Loading. Please wait.

The Way It Ends solo tab

version 2
version 2

Whole song

Interactive

4,470 views 1 this week
2 commentsread comments
1 2 3 4 5
x 3
add to favorites
×
Save as Personal and add changes to this tab that will be seen only by you. Learn more ›
×
You can save this tab as Personal to edit and correct it or add notes. All changes will be seen only by you. Learn more »
launch autoscroll
font size
0
reset
how to read this tab
guitar tuner
backing track
0:00
0:00
edit
Autoscroll
slow
fast
+/-
esc
set tempo
stop
Difficulty
This is the ambient solo for Prototype's "The Way It Ends"

e|--------------------------------------------------------------------------|
B|--11---11---13---14---14--14//16---14---11--------------------------------|
G|--------------------------------------------13\\11------------------------|
D|--------------------------------------------------------------------------|
A|--------------------------------------------------------------------------|
E|--------------------------------------------------------------------------|

e|--------------------------------------------------------------------------|
B|--11--11h13p11---10---10---11---13---11--11---13---14---14----14//16------|
G|--------------------------------------------------------------------------|
D|--------------------------------------------------------------------------|
A|--------------------------------------------------------------------------|
E|--------------------------------------------------------------------------|

e|--------------18--18h20p18--17--18----------------------------------------|
B|--14--13--19--------------------------------------------------------------|
G|--------------------------------------------------------------------------|
D|--------------------------------------------------------------------------|
A|--------------------------------------------------------------------------|
E|--------------------------------------------------------------------------|

Then it goes into the interlude before getting to the awesome shreddin' solo.

Tabbed by: DaMex57
E-Mail: DaMex57@aol.com
Suggest correction
Creating personal tab
Creating personal tab
You can edit any tab online and save it as your Personal.

You can edit, replace or remove any tab part or add personal notes – all changes will be seen only by you.

Personal tabs can be accessed anytime from any device, even offline.
Learn more »
Give kudos to tab author, rate the tab!
1 2 3 4 5
comments
print report bad tab
2 comments total.
0 reply
god of iceland 60 May 25, 2008 09:55 AM

its not right

0 reply
Greelinator 10 Sep 26, 2010 10:04 PM

Hmmmm it seems that some of the notes at the beginning that aren't slide notes should be bend notes. I could be wrong but when I hear the song it sounds like he's bending the string.

guest
Wanna post a correction for this tab? Suggest correction