Oops, an error
Loading. Please wait.

The Way It Ends Tab

version 1
version 1

Whole song

Interactive

34,374 views 9 this week
15 commentsread comments
1 2 3 4 5
accurate
x 18
add to favorites
launch autoscroll
font size
0
reset
how to read this tab
guitar tuner
Autoscroll
slow
fast
+/-
esc
set tempo
stop
Help us to improve Ultimate-Guitar.com Take our survey!
×
Author
Difficulty
Tuning
Azizzle 352
intermediate
D A D G B E
Prototype - The Way It Ends
Tuning: Drop D

Verse Riff A Rythem- (probly easier 2 listen 2 rythem)
dadala 8th rest, dadala full beat rest, dadala (repeat like 4 times:P)

For all bridges, listen to rythem, i have notes but probly not correct rythem.

Intro-
e:-------------------------------------------|
B:-------------------------------------------|
G:-------------------------------------------|
D:-------------------------------------------|
A:-2/8--7--4--7--10--8--7--16--19------------|
D:-2/8--7--4--7--10--8--7--16--19------------|

Riff A-
e:------------------------------------------------------------|
B:------------------------------------------------------------|
G:------------------------------------------------------------|
D:------------------------------------------------------------|
A:-1--3--4-4--4/6-4-3-----0--3--1--3--4-4--4/6-4-3--9--12-15--|
D:--------------------4---------------------------------------|

Verse Riff-
e:-------------------------------------------------------|
B:-------------------------------------------------------|
G:-------------------------------------------3-----------|
D:-----------------------------------------4---4-3-1-3-1-|
A:-111--111--111-111--111--111--000--000-0---------------|
D:-------------------------------------------------------|

e:-------------------------------------------------------------|
B:-------------------------------------------------------------|
G:-------------------------------------------------------------|
D:-------------------------------------------------------------|
A:-000--000--000-000--000--000-000--000--000-000--000--000-000-|
D:-------------------------------------------------------------|

e:-------------------------------------------------------|
B:-------------------------------------------------------|
G:-------------------------------------------3-----------|
D:-----------------------------------------4---4-3-1-3-1-|
A:-111--111--111-111--111--111--000--000-0---------------|
D:-------------------------------------------------------|

e:-------------------------------------------------------------|
B:-------------------------------------------------------------|
G:-------------------------------------------------------------|
D:-------------------------------------------------------------|
A:-000--000--000-000--000--000-000--000--000-000--000--000-000-|
D:-------------------------------------------------------------|

Chorus Riff-
e:-------------------------------------------------------------------------|
B:-------------------------------------------------------------------------|
G:-------------------------------------------------------------------------|
D:-----6------6----6------6------6---6------5------5----5-----5------5----5|
A:-44444--44444--444--44444--44444-444--33333--33333--333-33333--33333--333|
D:-------------------------------------------------------------------------|

Bridge 1-
e:---------------------------------------------------------------------|
B:---------------------------------------------------------------------|
G:---------------------------------------------------------------------|
D:---------------------------------------------------------------------|
A:-1111111111133333333344444444444444444446666666666644444444333333333-|
D:---------------------------------------------------------------------|

e:-----------------------------------------------------------|
B:-----------------------------------------------------------|
G:-----------------------------------------------------------|
D:-----------------------------------------------------------|
A:-----------------------------------------------------------|
D:-444444444444444444444446666666666444444444333333333333333-|

e:---------------------------------------------------------------------|
B:---------------------------------------------------------------------|
G:---------------------------------------------------------------------|
D:---------------------------------------------------------------------|
A:-1111111111133333333344444444444444444446666666666644444444333333333-|
D:---------------------------------------------------------------------|

e:-----------------------------------------------------------|
B:-----------------------------------------------------------|
G:-----------------------------------------------------------|
D:-----------------------------------------------------------|
A:-----------------------------------------------------------|
D:-444444444444444444444446666666666444444444333333333333333-|


e:-------------------|
B:-------------------|
G:-------------------|
D:-------3-1----1-3--|
A:-1--0--1-0--3-0-1--|
D:-1--0-------3------|


Verse Riff-
e:-------------------------------------------------------|
B:-------------------------------------------------------|
G:-------------------------------------------3-----------|
D:-----------------------------------------4---4-3-1-3-1-|
A:-111--111--111-111--111--111--000--000-0---------------|
D:-------------------------------------------------------|

e:-------------------------------------------------------------|
B:-------------------------------------------------------------|
G:-------------------------------------------------------------|
D:-------------------------------------------------------------|
A:-000--000--000-000--000--000-000--000--000-000--000--000-000-|
D:-------------------------------------------------------------|

e:-------------------------------------------------------|
B:-------------------------------------------------------|
G:-------------------------------------------3-----------|
D:-----------------------------------------4---4-3-1-3-1-|
A:-111--111--111-111--111--111--000--000-0---------------|
D:-------------------------------------------------------|

e:-------------------------------------------------------------|
B:-------------------------------------------------------------|
G:-------------------------------------------------------------|
D:-------------------------------------------------------------|
A:-000--000--000-000--000--000-000--000--000-000--000--000-000-|
D:-------------------------------------------------------------|

Chorus Riff-
e:-------------------------------------------------------------------------|
B:-------------------------------------------------------------------------|
G:-------------------------------------------------------------------------|
D:-----6------6----6------6------6---6------5------5----5-----5------5----5|
A:-44444--44444--444--44444--44444-444--33333--33333--333-33333--33333--333|
D:-------------------------------------------------------------------------|

Bridge 2-
e:---------------------------------------------------------------------|
B:---------------------------------------------------------------------|
G:---------------------------------------------------------------------|
D:---------------------------------------------------------------------|
A:-1111111111133333333344444444444444444446666666666644444444333333333-|
D:---------------------------------------------------------------------|

e:-----------------------------------------------------------|
B:-----------------------------------------------------------|
G:-----------------------------------------------------------|
D:-----------------------------------------------------------|
A:-----------------------------------------------------------|
D:-444444444444444444444446666666666444444444333333333333333-|

e:---------------------------------------------------------------------|
B:---------------------------------------------------------------------|
G:---------------------------------------------------------------------|
D:---------------------------------------------------------------------|
A:-1111111111133333333344444444444444444446666666666644444444333333333-|
D:---------------------------------------------------------------------|

e:-----------------------------------------------------------|
B:-----------------------------------------------------------|
G:-----------------------------------------------------------|
D:-----------------------------------------------------------|
A:-----------------------------------------------------------|
D:-444444444444444444444446666666666444444444333333333333333-|


e:-----------------|
B:-----------------|
G:-----------------|
D:-----------------|
A:-3-3-3-3-3-3-3-3-|
D:-3-3-3-3-3-3-3-3-|

Ambient Solo-
e:--------------------------------------------------------|
B:--------------------------------------------------------|
G:--------------------------------------------------------|
D:-/8---8--10--11-11--/13-11-10\4---8-11p10p8-7-8h10-8/10-|
A:--------------------------------------------------------|
D:--------------------------------------------------------|

e:-------------------------------------------------|
B:-------------------------------------------------|
G:-------------------------------------------------|
D:-8---10--11-11--13-11-10-10/16---20--22p21p20-19-|
A:-------------------------------------------------|
D:-------------------------------------------------|

Bang Yer Heads-
e:------------------------------------------------------------|
B:------------------------------------------------------------|
G:------------------------------------------------------------|
D:-----10-8------6-8------10-8------6-8------6-4-------6-4----|
A:------------------------------------------------------------|
D:-888--8--8--888-8-8--444--4-4--444-4-4--111-1-1---111-1-1---|

e:------------------------------------------------------------------|
B:------------------------------------------------------------------|
G:------------------------------------------------------------------|
D:----8-8------7-7------10-8------6-8------10-8------6-8------6-4---|
A:------------------------------------------------------------------|
D:-333-3-3--333-3-3--888--8-8--888-8-8--444--4-4--444-4-4--111-1-1--|

e:------------------------|
B:------------------------|
G:------------------------|
D:----6-4------8---777777-|
A:------------------------|
D:-111-1-1--333-----------|


Shredding Solo pt.1: Sorry guys, 2 hard for me 2 figure out so it's pretty much free 
to anyone who wants 2 figure it out.

Solo Interlude:
e:----------------------------------------------------------|
B:----------------------------------------------------------|
G:----------------------------------------------------------|
D:-15--14-11--14--13--15--15-17-18-18-------18-17-11-15--17-|
A:-13--12--9--12--15--13--13-15-16-16-16/18-16-15-9--13--15-|
D:----------------------------------------------------------|

Shredding Solo pt.2: no dice on this one either, sorry.

Bridge 3:
e:-------------------------------------------------------------------------|
B:-------------------------------------------------------------------------|
G:-------------------------------------------------------------------------|
D:-------------------------------------------------------------------------|
A:1111111333344444444666666664444444433333---------------------------------|
D:----------------------------------------44444444444446666666444444433333-|

e:-------------------------------------------------------------------------|
B:-------------------------------------------------------------------------|
G:-------------------------------------------------------------------------|
D:-------------------------------------------------------------------------|
A:1111111333344444444666666664444444433333---------------------------------|
D:----------------------------------------44444444444446666666444444433333-|

e:-----------------------------|
B:-----------------------------|
G:-----------------------------|
D:-------3-------1-----3~~~~~--|
A:-1--0--1-0--3--0-----1~~~~~--|
D:-1--0-------3----------------|

Legend:
/: slide up to
\: slide down to
p: pull off
h: hammer on
~: hold note(last one) / vibrato
Suggest correction new What's this?
You can suggest a correction to this tab. Community and Mods will review your correction and vote to approve or reject it.
comments
print report bad tab
15 comments total. Showing first comments. show 2 bad comments
+3 reply
flyin 516 wrote on April 27 2008, 07:41 pm

nice.

guest
You may want to rate the tab now too:
select rating
Please do not post tabs as comments. Select "correction" instead!