Oops, an error
Loading. Please wait.

The Way It Ends tab

version 2
version 2

Whole song

Interactive

22,675 views 9 this week
18 commentsread comments
1 2 3 4 5
x 16
add to favorites
×
Save as Personal and add changes to this tab that will be seen only by you. Learn more ›
×
You can save this tab as Personal to edit and correct it or add notes. All changes will be seen only by you. Learn more »
launch autoscroll
font size
0
reset
how to read this tab
guitar tuner
backing track
0:00
0:00
edit
Autoscroll
slow
fast
+/-
esc
set tempo
stop
                The Way It Ends - Prototype                                 
----------------------------------------------------------------------------

Tab: Mr Lordi
Email: coldfear275@aim.com
                                                                       
Check out my Guitar Pro Version

Lead Guitar

   Intro
                         (Repeat)
     W                       W                   W                 
E||--------------------||---------------------|-------------------|
B||--------------------||---------------------|-------------------|
G||--------------------||*--------------------|-------------------|
D||--------------------||*--10----------------|--L----------------|
A||--------------------||----8----------------|--L----------------|
D||--2/----------------||----8----------------|--L----------------|


  W                   W                   W                   W                 
-------------------|-------------------|-------------------|-------------------|
-------------------|-------------------|-------------------|-------------------|
--6----------------|--L----------------|--6----------------|--L----------------|
--4----------------|--L----------------|--4----------------|--L----------------|
--4----------------|--L----------------|--4----------------|--L----------------|
--7----------------|--L----------------|--4----------------|--L----------------|

                                           Intro B (Repeat)
  W                    W                      W                 
-------------------|---------------------||--------------------|
-------------------|---------------------||--------------------|
--9----------------|---8----------------*||*-------------------|
--7----------------|---6----------------*||*--8----------------|
--7----------------|---6-----------------||--------------------|
--7----------------|--10-----------------||---8----------------|


  Q.      Q.      Q        W                    Q.      Q.      Q     
-----------------------|--------------------|------------------------|
-----------------------|--------------------|------------------------|
-----------------------|--------------------|------------------------|
--8------10------11----|--11----------------|--13------11------10----|
-----------------------|--------------------|------------------------|
--8------10------11----|--11----------------|--13------11------10----|

Ending A (First Time)
   W                   W                   W                 
--------------------|-------------------|-------------------|
--------------------|-------------------|-------------------|
--------------------|-------------------|-------------------|
--11----------------|--L----------------|--7----------------|
--------------------|-------------------|-------------------|
--11----------------|--L----------------|--7----------------|

                       Ending B (Second Time)
   W                      W                   W                 
---------------------||--------------------|-------------------|
---------------------||--------------------|-------------------|
--------------------*||--------------------|-------------------|
--10----------------*||--16----------------|--L----------------|
---------------------||--------------------|-------------------|
--10-----------------||--16----------------|--L----------------|

                                         Verse 1
  W                    W                   S S S S S S S S S S S S S S S S  
-------------------|--------------------|----------------------------------|
-------------------|--------------------|----------------------------------|
-------------------|--------------------|----------------------------------|
--7----------------|--10----------------|--3-----------3-----------3-------|
-------------------|--------------------|--1-1-1-1-1-1-1-1-1-1-1-1-1-1-1-1-|
--7----------------|--10----------------|----------------------------------|


  S S S S S S S S S S S S S S S S    S S S S S S S S S S S S S S S S  
----------------------------------|----------------------------------|
----------------------------------|----------------------------------|
----------------------------------|----------------------------------|
--3-----------3-----------3-------|--3-----------3-----------3-------|
--1-1-1-1-1-1-1-1-1-1-1-1-1-1-1-1-|--1-1-1-1-1-1-1-1-1-1-1-1-1-1-1-1-|
----------------------------------|----------------------------------|


         PM PM PM PM PM PM                                     
  S S E  E  E  E  E  E  E     S S S S S S S S S S S S S S S S  
---------------------------|----------------------------------|
---------------------------|----------------------------------|
------------3--------------|--6-----------6-----------6-------|
---------4-----4--3--1--3--|--4-----------4-----------4-------|
--1-1-1--------------------|--0-0-0-0-0-0-0-0-0-0-0-0-0-0-0-0-|
---------------------------|----------------------------------|


  S S S S S S S S S S S S S S S S    S S S S S S S S S S S S S S S S  
----------------------------------|----------------------------------|
----------------------------------|----------------------------------|
--6-----------6-----------6-------|--6-----------6-----------6-------|
--4-----------4-----------4-------|--4-----------4-----------4-------|
--0-0-0-0-0-0-0-0-0-0-0-0-0-0-0-0-|--0-0-0-0-0-0-0-0-0-0-0-0-0-0-0-0-|
----------------------------------|----------------------------------|


  S S S S S S S S S S S S S S S S    S S S S S S S S S S S S S S S S  
----------------------------------|----------------------------------|
----------------------------------|----------------------------------|
--6-----------6-----------6-------|----------------------------------|
--4-----------4-----------4-------|--3-----------3-----------3-------|
--0-0-0-0-0-0-0-0-0-0-0-0-0-0-0-0-|--1-1-1-1-1-1-1-1-1-1-1-1-1-1-1-1-|
----------------------------------|----------------------------------|


  S S S S S S S S S S S S S S S S    S S S S S S S S S S S S S S S S  
----------------------------------|----------------------------------|
----------------------------------|----------------------------------|
----------------------------------|----------------------------------|
--3-----------3-----------3-------|--3-----------3-----------3-------|
--1-1-1-1-1-1-1-1-1-1-1-1-1-1-1-1-|--1-1-1-1-1-1-1-1-1-1-1-1-1-1-1-1-|
----------------------------------|----------------------------------|


      PM PM PM PM PM PM PM                                     
  S S E  E  E  E  E  E  E     S S S S S S S S S S S S S S S S  
---------------------------|----------------------------------|
---------------------------|----------------------------------|
------3-----3--------------|--6-----------6-----------6-------|
---------3-----4--3--1--3--|--4-----------4-----------4-------|
--1-1----------------------|--0-0-0-0-0-0-0-0-0-0-0-0-0-0-0-0-|
---------------------------|----------------------------------|


  S S S S S S S S S S S S S S S S    S S S S S S S S S S S S S S S S  
----------------------------------|----------------------------------|
----------------------------------|----------------------------------|
--6-----------6-----------6-------|--6-----------6-----------6-------|
--4-----------4-----------4-------|--4-----------4-----------4-------|
--0-0-0-0-0-0-0-0-0-0-0-0-0-0-0-0-|--0-0-0-0-0-0-0-0-0-0-0-0-0-0-0-0-|
----------------------------------|----------------------------------|

                                   Pre - Chorus (repeat)
  S S S S S S S S S S S S S S S S      S S S S S S S S S S S S S S S S  
----------------------------------||-----------------------------------|
----------------------------------||-----------------------------------|
--6-----------6-----------6-------||*--8-----------8-----------8-------|
--4-----------4-----------4-------||*--6-----------6-----------6-------|
--0-0-0-0-0-0-0-0-0-0-0-0-0-0-0-0-||---4-4-4-4-4-4-4-4-4-4-4-4-4-4-4-4-|
----------------------------------||-----------------------------------|


  S S S S S S S S S S S S S S S S    S S S S S S S S S S S S S S S S  
----------------------------------|----------------------------------|
----------------------------------|----------------------------------|
--8-----------8-----------8-------|--8-----------8-----------8-------|
--6-----------6-----------6-------|--6-----------6-----------6-------|
--4-4-4-4-4-4-4-4-4-4-4-4-4-4-4-4-|--3-3-3-3-3-3-3-3-3-3-3-3-3-3-3-3-|
----------------------------------|----------------------------------|


  S S S S S S S S S S S S S S S S    S S S S S S S S S S S S S S S S  
----------------------------------|----------------------------------|
----------------------------------|----------------------------------|
--8-----------8-----------8-------|--8-----------8-----------8-------|
--6-----------6-----------6-------|--6-----------6-----------6-------|
--3-3-3-3-3-3-3-3-3-3-3-3-3-3-3-3-|--4-4-4-4-4-4-4-4-4-4-4-4-4-4-4-4-|
----------------------------------|----------------------------------|

                                   Ending A (First Time)
  S S S S S S S S S S S S S S S S     S S S S S S  S S S S S S  S S S S  
----------------------------------|-------------------------------------|
----------------------------------|-------------------------------------|
--8-----------8-----------8-------|--11-----------11-----------11-------|
--6-----------6-----------6-------|---9------------9------------9-------|
--4-4-4-4-4-4-4-4-4-4-4-4-4-4-4-4-|---7-7-7-7-7-7--7-7-7-7-7-7--7-7-7-7-|
----------------------------------|-------------------------------------|

                                        Ending B (Second Time)
   S S S S S S  S S S S S S  S S S S      Q.     Q.     Q     
--------------------------------------||---------------------|
--------------------------------------||---------------------|
--10-----------10-----------10-------*||---------8-----------|
---8------------8------------8-------*||---------9------9----|
---6-6-6-6-6-6--6-6-6-6-6-6--6-6-6-6--||--7------------------|
--------------------------------------||---------------------|

                       Chorus
  Q.     Q.     Q         S S S S S S S S S S S S S S S S  
---------------------||-----------------------------------|
---------------------||-----------------------------------|
--8------8------8----||*--3-------------------------------|
--8------8------8----||*--3-------------------------------|
--6------6------6----||---1-1-1-1-1-1-1-1-1-1-1-1-1-1-1-1-|
---------------------||-----------------------------------|


  S S S S S S S S S S S S S S S S    S S S S S S S S S S S S S S S S  
----------------------------------|----------------------------------|
----------------------------------|----------------------------------|
--3-----------5-----------6-------|--6-------------------------------|
--3-----------5-----------6-------|--6-------------------------------|
--1-1-1-1-1-1-3-3-3-3-3-3-4-4-4-4-|--4-4-4-4-4-4-4-4-4-4-4-4-4-4-4-4-|
----------------------------------|----------------------------------|


  S S S S S S S S S S S S S S S S    S S S S S S S S S S S S S S S S  
----------------------------------|----------------------------------|
----------------------------------|----------------------------------|
--8-----------6-----------5-------|----------------------------------|
--8-----------6-----------5-------|--4-------------------------------|
--6-6-6-6-6-6-4-4-4-4-4-4-3-3-3-3-|--4-------------------------------|
----------------------------------|--4-4-4-4-4-4-4-4-4-4-4-4-4-4-4-4-|


  S S S S S S S S S S S S S S S S    S S S S S S S S S S S S S S S S  
----------------------------------|----------------------------------|
----------------------------------|----------------------------------|
----------------------------------|----------------------------------|
--4-----------6-----------4-------|--3-------------------------------|
--4-----------6-----------4-------|--3-------------------------------|
--4-4-4-4-4-4-6-6-6-6-6-6-4-4-4-4-|--3-3-3-3-3-3-3-3-3-3-3-3-3-3-3-3-|


  S S S S S S S S S S S S S S S S      Q.     Q.     Q     
-----------------------------------||---------------------|
-----------------------------------||---------------------|
----------------------------------*||----------------3----|
--3-----------3-----------3-------*||--1------0------3----|
--3-----------3-----------3--------||--1------0------1----|
--3-3-3-3-3-3-3-3-3-3-3-3-3-3-3-3--||--1------0-----------|

                      Verse 2
  Q.     Q.     Q       S S S S S S S S S S S S S S S S  
---------------------|----------------------------------|
---------------------|----------------------------------|
--2-------------2----|----------------------------------|
--2------4------2----|--3-----------3-----------3-------|
--0------4------0----|--1-1-1-1-1-1-1-1-1-1-1-1-1-1-1-1-|
---------4-----------|----------------------------------|


  S S S S S S S S S S S S S S S S    S S S S S S S S S S S S S S S S  
----------------------------------|----------------------------------|
----------------------------------|----------------------------------|
----------------------------------|----------------------------------|
--3-----------3-----------3-------|--3-----------3-----------3-------|
--1-1-1-1-1-1-1-1-1-1-1-1-1-1-1-1-|--1-1-1-1-1-1-1-1-1-1-1-1-1-1-1-1-|
----------------------------------|----------------------------------|


         PM PM PM PM PM PM                                     
  S S E  E  E  E  E  E  E     S S S S S S S S S S S S S S S S  
---------------------------|----------------------------------|
---------------------------|----------------------------------|
------------3--------------|--6-----------6-----------6-------|
---------4-----4--3--1--3--|--4-----------4-----------4-------|
--1-1-1--------------------|--0-0-0-0-0-0-0-0-0-0-0-0-0-0-0-0-|
---------------------------|----------------------------------|


  S S S S S S S S S S S S S S S S    S S S S S S S S S S S S S S S S  
----------------------------------|----------------------------------|
----------------------------------|----------------------------------|
--6-----------6-----------6-------|--6-----------6-----------6-------|
--4-----------4-----------4-------|--4-----------4-----------4-------|
--0-0-0-0-0-0-0-0-0-0-0-0-0-0-0-0-|--0-0-0-0-0-0-0-0-0-0-0-0-0-0-0-0-|
----------------------------------|----------------------------------|


  S S S S S S S S S S S S S S S S    S S S S S S S S S S S S S S S S  
----------------------------------|----------------------------------|
----------------------------------|----------------------------------|
--6-----------6-----------6-------|----------------------------------|
--4-----------4-----------4-------|--3-----------3-----------3-------|
--0-0-0-0-0-0-0-0-0-0-0-0-0-0-0-0-|--1-1-1-1-1-1-1-1-1-1-1-1-1-1-1-1-|
----------------------------------|----------------------------------|


  S S S S S S S S S S S S S S S S    S S S S S S S S S S S S S S S S  
----------------------------------|----------------------------------|
----------------------------------|----------------------------------|
----------------------------------|----------------------------------|
--3-----------3-----------3-------|--3-----------3-----------3-------|
--1-1-1-1-1-1-1-1-1-1-1-1-1-1-1-1-|--1-1-1-1-1-1-1-1-1-1-1-1-1-1-1-1-|
----------------------------------|----------------------------------|


      PM PM PM PM PM PM PM                                     
  S S E  E  E  E  E  E  E     S S S S S S S S S S S S S S S S  
---------------------------|----------------------------------|
---------------------------|----------------------------------|
------3-----3--------------|--6-----------6-----------6-------|
---------3-----4--3--1--3--|--4-----------4-----------4-------|
--1-1----------------------|--0-0-0-0-0-0-0-0-0-0-0-0-0-0-0-0-|
---------------------------|----------------------------------|


  S S S S S S S S S S S S S S S S    S S S S S S S S S S S S S S S S  
----------------------------------|----------------------------------|
----------------------------------|----------------------------------|
--6-----------6-----------6-------|--6-----------6-----------6-------|
--4-----------4-----------4-------|--4-----------4-----------4-------|
--0-0-0-0-0-0-0-0-0-0-0-0-0-0-0-0-|--0-0-0-0-0-0-0-0-0-0-0-0-0-0-0-0-|
----------------------------------|----------------------------------|

                                   Pre- Chorus (Repeat)
  S S S S S S S S S S S S S S S S      S S S S S S S S S S S S S S S S  
----------------------------------||-----------------------------------|
----------------------------------||-----------------------------------|
--6-----------6-----------6-------||*--8-----------8-----------8-------|
--4-----------4-----------4-------||*--6-----------6-----------6-------|
--0-0-0-0-0-0-0-0-0-0-0-0-0-0-0-0-||---4-4-4-4-4-4-4-4-4-4-4-4-4-4-4-4-|
----------------------------------||-----------------------------------|


  S S S S S S S S S S S S S S S S    S S S S S S S S S S S S S S S S  
----------------------------------|----------------------------------|
----------------------------------|----------------------------------|
--8-----------8-----------8-------|--8-----------8-----------8-------|
--6-----------6-----------6-------|--6-----------6-----------6-------|
--4-4-4-4-4-4-4-4-4-4-4-4-4-4-4-4-|--3-3-3-3-3-3-3-3-3-3-3-3-3-3-3-3-|
----------------------------------|----------------------------------|


  S S S S S S S S S S S S S S S S    S S S S S S S S S S S S S S S S  
----------------------------------|----------------------------------|
----------------------------------|----------------------------------|
--8-----------8-----------8-------|--8-----------8-----------8-------|
--6-----------6-----------6-------|--6-----------6-----------6-------|
--3-3-3-3-3-3-3-3-3-3-3-3-3-3-3-3-|--4-4-4-4-4-4-4-4-4-4-4-4-4-4-4-4-|
----------------------------------|----------------------------------|

                                   Ending A (First Time)
  S S S S S S S S S S S S S S S S     S S S S S S  S S S S S S  S S S S  
----------------------------------|-------------------------------------|
----------------------------------|-------------------------------------|
--8-----------8-----------8-------|--11-----------11-----------11-------|
--6-----------6-----------6-------|---9------------9------------9-------|
--4-4-4-4-4-4-4-4-4-4-4-4-4-4-4-4-|---7-7-7-7-7-7--7-7-7-7-7-7--7-7-7-7-|
----------------------------------|-------------------------------------|

                                        Ending B (Second Time)
   S S S S S S  S S S S S S  S S S S      Q.     Q.     Q     
--------------------------------------||---------------------|
--------------------------------------||---------------------|
--10-----------10-----------10-------*||---------8-----------|
---8------------8------------8-------*||---------9------9----|
---6-6-6-6-6-6--6-6-6-6-6-6--6-6-6-6--||--7------------------|
--------------------------------------||---------------------|

                       Chorus
  Q.     Q.     Q         S S S S S S S S S S S S S S S S  
---------------------||-----------------------------------|
---------------------||-----------------------------------|
--8------8------8----||*--3-------------------------------|
--8------8------8----||*--3-------------------------------|
--6------6------6----||---1-1-1-1-1-1-1-1-1-1-1-1-1-1-1-1-|
---------------------||-----------------------------------|


  S S S S S S S S S S S S S S S S    S S S S S S S S S S S S S S S S  
----------------------------------|----------------------------------|
----------------------------------|----------------------------------|
--3-----------5-----------6-------|--6-------------------------------|
--3-----------5-----------6-------|--6-------------------------------|
--1-1-1-1-1-1-3-3-3-3-3-3-4-4-4-4-|--4-4-4-4-4-4-4-4-4-4-4-4-4-4-4-4-|
----------------------------------|----------------------------------|


  S S S S S S S S S S S S S S S S    S S S S S S S S S S S S S S S S  
----------------------------------|----------------------------------|
----------------------------------|----------------------------------|
--8-----------6-----------5-------|----------------------------------|
--8-----------6-----------5-------|--4-------------------------------|
--6-6-6-6-6-6-4-4-4-4-4-4-3-3-3-3-|--4-------------------------------|
----------------------------------|--4-4-4-4-4-4-4-4-4-4-4-4-4-4-4-4-|


  S S S S S S S S S S S S S S S S    S S S S S S S S S S S S S S S S  
----------------------------------|----------------------------------|
----------------------------------|----------------------------------|
----------------------------------|----------------------------------|
--4-----------6-----------4-------|--3-------------------------------|
--4-----------6-----------4-------|--3-------------------------------|
--4-4-4-4-4-4-6-6-6-6-6-6-4-4-4-4-|--3-3-3-3-3-3-3-3-3-3-3-3-3-3-3-3-|


  S S S S S S S S S S S S S S S S      Q    Q    Q    Q     
-----------------------------------||----------------------|
-----------------------------------||----------------------|
----------------------------------*||----------------------|
--3-----------3-----------3-------*||--3----3----3----3----|
--3-----------3-----------3--------||--3----3----3----3----|
--3-3-3-3-3-3-3-3-3-3-3-3-3-3-3-3--||--3----3----3----3----|


  Q    Q    Q    Q       W                   W                 
----------------------|-------------------|-------------------|
----------------------|-------------------|-------------------|
----------------------|-------------------|-------------------|
--3----3----3----3----|-------------------|-------------------|
--3----3----3----3----|-------------------|-------------------|
--3----3----3----3----|-------------------|-------------------|

Ambient Solo
   H.            Q.      Q     E      H.            Q     Q     E   E   
----------------------------------|------------------------------------|
----------------------------------|------------------------------------|
----------------------------------|------------------------------------|
--/8------------/8------10----11--|--11------------13----11----10------|
----------------------------------|--------------------------------11--|
----------------------------------|------------------------------------|


  H.            H.               H        S   S  E  H        E  E   
-----------------------------|-------------------------------------|
-----------------------------|-------------------------------------|
-----------------------------|-------------------------------------|
-----------------------------|--/8--------8h-10p-8--7--------7--8--|
--9~------------L------------|-------------------------------------|
-----------------------------|-------------------------------------|


   Q    H        Q.      Q     E      H.            Q     Q     E   E   
----------------------------------|------------------------------------|
----------------------------------|------------------------------------|
----------------------------------|------------------------------------|
--10----8--------8------10----11--|--11------------13----11----10------|
----------------------------------|--------------------------------11--|
----------------------------------|------------------------------------|


   H.            H.                H         S   S   E   H         E   E   
------------------------------|-------------------------------------------|
------------------------------|-------------------------------------------|
--11~------------L------------|--/15--------15h-17p-15--14--------14--15--|
------------------------------|-------------------------------------------|
------------------------------|-------------------------------------------|
------------------------------|-------------------------------------------|

Mosh Riff
  PM PM PM     PM    PM PM PM PM    PM    PM  
  S  S  E   E  E  E  E  S  S  E  E  E  E  E   
---------------------------------------------|
---------------------------------------------|
---------------------------------------------|
-----------10-----8--------------6-----8-----|
---------------------------------------------|
--8--8--8------8-----8--8--8--8-----8-----8--|


  PM PM PM    PM    PM PM PM PM    PM    PM  
  S  S  E  E  E  E  E  S  S  E  E  E  E  E   
--------------------------------------------|
--------------------------------------------|
-----------5-----3--------------------------|
--------------------------------6-----8-----|
--------------------------------------------|
--4--4--4-----4-----4--4--4--4-----4-----4--|


  PM PM PM    PM    PM PM PM PM    PM    PM  
  S  S  E  E  E  E  E  S  S  E  E  E  E  E   
--------------------------------------------|
--------------------------------------------|
--------------------------------------------|
-----------6-----4--------------6-----4-----|
--------------------------------------------|
--1--1--1-----1-----1--1--1--1-----1-----1--|


  PM PM PM    PM    PM PM PM PM    PM    PM  
  S  S  E  E  E  E  E  S  S  E  E  E  E  E   
--------------------------------------------|
--------------------------------------------|
-----------3-----3--------------2-----2-----|
--------------------------------------------|
--------------------------------------------|
--3--3--3-----3-----3--3--3--3-----3-----3--|

Mosh Riff B (Accel)
  PM PM PM     PM    PM PM PM PM    PM    PM  
  S  S  E   E  E  E  E  S  S  E  E  E  E  E   
---------------------------------------------|
---------------------------------------------|
---------------------------------------------|
-----------10-----8--------------6-----8-----|
---------------------------------------------|
--8--8--8------8-----8--8--8--8-----8-----8--|


  PM PM PM    PM    PM PM PM PM    PM    PM  
  S  S  E  E  E  E  E  S  S  E  E  E  E  E   
--------------------------------------------|
--------------------------------------------|
-----------5-----3--------------------------|
--------------------------------6-----8-----|
--------------------------------------------|
--4--4--4-----4-----4--4--4--4-----4-----4--|


  PM PM PM    PM    PM PM PM PM    PM    PM  
  S  S  E  E  E  E  E  S  S  E  E  E  E  E   
--------------------------------------------|
--------------------------------------------|
--------------------------------------------|
-----------6-----4--------------6-----4-----|
--------------------------------------------|
--1--1--1-----1-----1--1--1--1-----1-----1--|


  S S E  E  E  S S S S S S E  E  E  Q     
-----------------------------------------|
-----------------------------------------|
---------3--------------------3-----2----|
-----------------------------------------|
-----------------------------------------|
--3-3-3--------3-3-3-3-3-3-3-----3-------|

Solo
                                           |---3---|   |---3---|   |---3---|    
    E   T  T  T  S  S  S  E   T  T  T  S   E   E   E   E   E   E   E   E   E   S
--------------------------------------13h-18--13------13------------------------
----------------14-----------------14-------------14------14--------------------
-------------15----15-----------15----------------------------15----------------
----------15----------15-----15-----------------------------------15------15---L
--/13--16----------------16-------------------------------------------16--------
--------------------------------------------------------------------------------


   H          E   S   S   H         E    E   
---------------------------------------/18--|
--------------------------------------------|
--------------------------------------------|
--15br--------L--15p-13h-15~--------L-------|
--------------------------------------------|
--------------------------------------------|


       |-----3-----|                   |-----3-----|               
   E   S   S   E   E   E   E   E   E   S   S   E   E   E   E   E   
--16--14h-16p-14--------------18--16--14h-16p-14------------------|
------------------16------16----------------------16--------------|
----------------------15------------------------------15------15--|
----------------------------------------------------------16------|
------------------------------------------------------------------|
------------------------------------------------------------------|


   H         E.  E   S   S   S  S  S  E  E  E   
--------------------13h-14p-13----13~-L--L--L--|
-------------------------------16--------------|
-----------------------------------------------|
--14b--------L---L-----------------------------|
-----------------------------------------------|
-----------------------------------------------|


   S   S  S  S  S   S  S  S  S   S  S  S  S  S  S  S   S   S  S  S   S   S  S  S
--18S-14-14-14-18S-13-13-13-18S-11-11-18-----------------------------------13-14
-----------------------------------------14-14-14-13h-14p-13----13h-14h-16------
-------------------------------------------------------------15-----------------
--------------------------------------------------------------------------------
--------------------------------------------------------------------------------
--------------------------------------------------------------------------------


   S   S   S  S  S   S S  E    E   S   S   S   S  E    E   E.   E   
--13p-11h-13-11p-9h-11-9-------------------------------------------|
-------------------------13br--L--11h-14p-13p-11-------------------|
-------------------------------------------------------------------|
-------------------------------------------------15br--L--13~---L--|
-------------------------------------------------------------------|
-------------------------------------------------------------------|


    Q     W                  E   E      H         Q     Q     Q     Q     
----------------------------11--13--|--13--------18----17----21----20----|
--/18----16~------------------------|------------------------------------|
-----------------------------8--10--|--10--------15----14----18----17----|
--/15----13~------------------------|------------------------------------|
------------------------------------|------------------------------------|
------------------------------------|------------------------------------|


   H.            H.               W.                
--20------------18~------------|--L----------------|
-------------------------------|-------------------|
--17------------15~------------|--L----------------|
-------------------------------|-------------------|
-------------------------------|-------------------|
-------------------------------|-------------------|


                                                W             
  H.            H.               H.             H.            
------------------------------|------------------------------|
------------------------------|------------------------------|
------------------------------|------------------------------|
------------------------------|--7~------------10------------|
--6~------------8~------------|------------------------------|
------------------------------|------------------------------|

Post - Solo
  H.            Q      Q      Q         H.            Q     Q     Q     
------------------------------------|----------------------------------|
------------------------------------|----------------------------------|
------------------------------------|----------------------------------|
--8~------------8~----10~----11~----|--11------------13----11----10----|
------------------------------------|----------------------------------|
--8-------------8-----10-----11-----|--11------------13----11----10----|


   \0/                                                        
   H.           H.              H.             H.             
-----------------------------|-------------------------------|
-----------------------------|-------------------------------|
-----------------------------|-------------------------------|
--11------------L------------|--7~------------10~------------|
-----------------------------|-------------------------------|
--11------------L------------|--7-------------10-------------|

Solo 2
   |----12--|   |---12--|    |----12--|    |---12-|   
   E    E   E   E  E    E    E    E   E    E   E  E   
-----------------------------------------------------|
--11p--10p--7------7h--10h--11p--10p--7h--10---------|
---------------10-----------------------------10--L--|
-----------------------------------------------------|
-----------------------------------------------------|
-----------------------------------------------------|


   S   S  S   S  E   S  S  S  S  E  S   S  S S     Q     S  S  H         E   
-----------------------------------------------|--13b----L-10-13~--------9--|
---------------------------------------------x-|----------------------------|
--11p-10p-8h-10p-8-----10p-8--------------10---|----------------------------|
--------------------11-------11p-8--8h-11------|----------------------------|
-----------------------------------------------|----------------------------|
-----------------------------------------------|----------------------------|


   H.            E   E     H.            E  E      Q.      Q.      Q     
------------------------|----------------------|--14------13------11----|
--10b------------L--10--|----------------------|------------------------|
------------------------|--9~------------L-----|--11------10-------8----|
------------------------|----------------------|------------------------|
------------------------|----------------------|------------------------|
------------------------|----------------------|------------------------|


   Q.      Q.      Q        Q.      Q     S  S  Q        W                  
------------------------|----------------------------|---------------------|
--14------13------11----|----------------------------|--11~----------------|
------------------------|--14------11----14-11-10----|---------------------|
--11------10-------8----|----------------------------|---8-----------------|
------------------------|--12-------9----12--9--8----|---------------------|
------------------------|----------------------------|---------------------|


  H.           S  E  S   
---------------------9h-|
--L------------L-11-----|
------------------------|
--L---------------------|
------------------------|
------------------------|


   S  S  S S  S  S   S   S   S   S   S   S  S   S   S  S  
--14p-9----9---------------------------------------------|
--------11---11------------------------------------------|
----------------14p-11h-14p-11p-10h-11p-10------------10-|
-------------------------------------------13p-11h-13----|
---------------------------------------------------------|
---------------------------------------------------------|


   S   S  S   S  S  S   S  S  S   S  S   S S  S   S  S  
----------------14------------------14h-18-L-----------|
---------11h-14----14p-11----11h-14----------19p-16----|
--11h-14------------------14------------------------18-|
-------------------------------------------------------|
-------------------------------------------------------|
-------------------------------------------------------|


   E   E  E   H         E      Q.      Q.      Q        Q.      Q.      Q     
--14--18--L--17~--------L--|--21------20------18----|--17------14------13----|
---------------------------|------------------------|------------------------|
---------------------------|--18------17------15----|--14------11------10----|
---------------------------|------------------------|------------------------|
---------------------------|------------------------|------------------------|
---------------------------|------------------------|------------------------|

                        Outro Chorus
   Q.      Q.      Q        W                   W                 
--11------13------14----|--18----------------|--L----------------|
------------------------|--------------------|-------------------|
---8------10------11----|--15----------------|--L----------------|
------------------------|--------------------|-------------------|
------------------------|--------------------|-------------------|
------------------------|--------------------|-------------------|


  S S S S S S S S S S S S S S S S    S S S S S S S S S S S S S S S S  
----------------------------------|----------------------------------|
----------------------------------|----------------------------------|
--6-------------------------------|--8-----------6-----------5-------|
--6-------------------------------|--8-----------6-----------5-------|
--4-4-4-4-4-4-4-4-4-4-4-4-4-4-4-4-|--6-6-6-6-6-6-4-4-4-4-4-4-3-3-3-3-|
----------------------------------|----------------------------------|


  S S S S S S S S S S S S S S S S    S S S S S S S S S S S S S S S S  
----------------------------------|----------------------------------|
----------------------------------|----------------------------------|
----------------------------------|----------------------------------|
--4-------------------------------|--4-----------6-----------4-------|
--4-------------------------------|--4-----------6-----------4-------|
--4-4-4-4-4-4-4-4-4-4-4-4-4-4-4-4-|--4-4-4-4-4-4-6-6-6-6-6-6-4-4-4-4-|


  S S S S S S S S S S S S S S S S    S S S S S S S S S S S S S S S S  
----------------------------------|----------------------------------|
----------------------------------|----------------------------------|
----------------------------------|----------------------------------|
--3-------------------------------|--3-----------3-----------3-------|
--3-------------------------------|--3-----------3-----------3-------|
--3-3-3-3-3-3-3-3-3-3-3-3-3-3-3-3-|--3-3-3-3-3-3-3-3-3-3-3-3-3-3-3-3-|


  S S S S S S S S S S S S S S S S    S S S S S S S S S S S S S S S S  
----------------------------------|----------------------------------|
----------------------------------|----------------------------------|
--3-------------------------------|--3-----------5-----------6-------|
--3-------------------------------|--3-----------5-----------6-------|
--1-1-1-1-1-1-1-1-1-1-1-1-1-1-1-1-|--1-1-1-1-1-1-3-3-3-3-3-3-4-4-4-4-|
----------------------------------|----------------------------------|


  S S S S S S S S S S S S S S S S    S S S S S S S S S S S S S S S S  
----------------------------------|----------------------------------|
----------------------------------|----------------------------------|
--6-------------------------------|--8-----------6-----------5-------|
--6-------------------------------|--8-----------6-----------5-------|
--4-4-4-4-4-4-4-4-4-4-4-4-4-4-4-4-|--6-6-6-6-6-6-4-4-4-4-4-4-3-3-3-3-|
----------------------------------|----------------------------------|


  S S S S S S S S S S S S S S S S    S S S S S S S S S S S S S S S S  
----------------------------------|----------------------------------|
----------------------------------|----------------------------------|
----------------------------------|----------------------------------|
--4-------------------------------|--4-----------6-----------4-------|
--4-------------------------------|--4-----------6-----------4-------|
--4-4-4-4-4-4-4-4-4-4-4-4-4-4-4-4-|--4-4-4-4-4-4-6-6-6-6-6-6-4-4-4-4-|


  S S S S S S S S S S S S S S S S    S S S S S S S S S S S S S S S S  
----------------------------------|----------------------------------|
----------------------------------|----------------------------------|
----------------------------------|----------------------------------|
--3-------------------------------|--3-----------3-----------3-------|
--3-------------------------------|--3-----------3-----------3-------|
--3-3-3-3-3-3-3-3-3-3-3-3-3-3-3-3-|--3-3-3-3-3-3-3-3-3-3-3-3-3-3-3-3-|


  Q.     Q.     Q       Q.     Q.     Q       W                 
---------------------|---------------------|-------------------|
---------------------|---------------------|-------------------|
----------------3----|--2-------------2----|--5----------------|
--1------0------3----|--2------4------2----|--3----------------|
--1------0------1----|--0------4------0----|--1----------------|
--1------0-----------|---------4-----------|-------------------|


  W                   W                                      
-------------------|-------------------|-------------------||
-------------------|-------------------|-------------------||
--6----------------|--L----------------|-------------------||
--3----------------|--L----------------|-------------------||
--1----------------|--L----------------|-------------------||
-------------------|-------------------|-------------------||




Duration Legend
---------------
W - whole
H - half
Q - quarter
E - 8th
S - 16th
T - 32nd
X - 64th
. - note dotted
|-n-|  - n-tuplets


Tablature Legend
----------------
L - tied note
x - dead note
g - grace note
(n) - ghost note
> - accentuded note
NH - natural harmonic
AH - artificial harmonic
TH - tapped harmonic
SH - semi harmonic
PH - pitch harmonic
h - hammer on
p - pull off
b - bend
br - bendRelease
pb - preBend
pbr - preBendRelease
brb - bendReleaseBend
\n/ - tremolo bar dip
\n - tremolo bar dive
-/n - tremolo bar Release up
/n\ - tremolo bar inverted dip
/n - tremolo bar return
-\n - tremolo bar Release down
S - shift slide
s - legato slide
/ -  slide into from below or out of upwards
\ -  slide into from above or out of downwards
~ - vibrato
W - wide vibrato
tr - trill
TP - tremolo picking
T - tapping
S - slap
P - pop
< - fade in
^ - brush up
v - brush down
Suggest correction
Creating personal tab
Creating personal tab
You can edit any tab online and save it as your Personal.

You can edit, replace or remove any tab part or add personal notes – all changes will be seen only by you.

Personal tabs can be accessed anytime from any device, even offline.
Learn more »
comments
print report bad tab
18 comments total. Showing first comments.
0 reply
smg 15 Jul 28, 2008 05:24 PM

this is pretty good.

0 reply
TheNextSynGates 31 Aug 07, 2008 07:31 AM

intermediate but i cannot do the chordes at the begininh

0 reply
Mr Lordi 1,338 Aug 07, 2008 01:20 PM

well i put intermediate because the solo is hard as f*ck lol

guest
You may want to rate the tab now too:
select rating
Wanna post a correction for this tab? Suggest correction