Oops, an error
Loading. Please wait.

Undying Tab

version 1
version 1

Whole song

Interactive

1,072 views 6 this week
no commentswrite comment
1 2 3 4 5
accurate
x 4
add to favorites
launch autoscroll
font size
0
reset
how to read this tab
guitar tuner
Tab Pro tools
  • play this tab
  • loop segment
  • change instrument
  • show fretboard
  • metronome
×
Best way to learn
"Undying"
Autoscroll
slow
fast
+/-
esc
set tempo
stop
Contributor
Difficulty
intermediate
TAB BY DIEGO JOSE GONZALEZ


Undying - Prototype
Continuum 2006


[Clean]Figure 1
e|----------------------------------|
B|----------------------------------|
G|---0-2p0-3----------0-2p0-3-------|This is played along the solo
D|-1--------------------------------|
A|----------------------------------|
E|------------------3---------------|


 Solo 1
e|--/3~---5h6-5~----/8~---6-5-6-5-----5-6-5-3--------------------------------|
B|---------------------------------4----------3-4~---------------------------|
G|--------------------------------------------------5/7\5---3/5\3-2--5-5/7---|
D|---------------------------------------------------------------------------|
A|--------------------------------------------------3/5\3---1/3\1-0--3-3/7---|
E|---------------------------------------------------------------------------|

ok, then the chords... i really suck at getting chords by ear, i use this chords, maybe 
right but sounds good to me.
This is an example of how the chords are used throughout the whole song.(chords at the bottom)


Gm       G7sus4            Fsus4
A somber portrait fills my heart

A#sus2
The feeling of remembering

Gm             G7sus4   Fsus4
It makes it so easy to forget

A#sus2
Until I pass you by

Chorus Fig. 1

  I’m undying to forget you…
e|----------------------------------|
B|----------------------------------|
G|---0-2p0-3----------0-2p0-3-------|
D|-1--------------------------------|
A|----------------------------------|
E|------------------3---------------|


Solo 2
e|-----3-5-6-5-3-5-3-----------------------------------------|
B|--/4-------------------------------------------------------|
G|-------------------2-3-2-0h1---0-2-3-2-0h1p0---------------|
D|---------------------------------------------3-0-/5~-------|
A|-----------------------------------------------------------|
E|-----------------------------------------------------------|

e|-------------------------------8----8/10~-8-------------/8~-6-5----5br------3~--x-|
B|---------------8-10-11-10-8-10---11---------11-10~--8-10--------8~-----/6\3-----x-|
G|----------78910-----------------------------------------------------------------x-|
D|-----78910----------------------------------------------------------------------x-|
A|--10----------------------------------------------------------------------------x-|
E|--------------------------------------------------------------------------------x-|

X= natural harmonic in the 7th fret


    Gm    G7sus4     Fsus4    A#sus2
e|-3--------3---------1---------1-------|
B|-3--------3---------1---------1-------|
G|-3--------5---------3---------3-------|
D|-5--------3---------3---------1-------|
A|-5--------5---------1---------3-------|
E|-3--------3---------1---------1-------|
comments
print report bad tab
I want to post or [tab]
guest
You may want to rate the tab now too:
select rating
Please do not post tabs as comments. Select "correction" instead!