Oops, an error
Loading. Please wait.

Karma tab

34 views 1 this week
no commentswrite comment
1 2 3 4 5
3 more votes to show rating
add to favorites
×
Save as Personal and add changes to this tab that will be seen only by you. Learn more ›
×
You can save this tab as Personal to edit and correct it or add notes. All changes will be seen only by you. Learn more »
launch autoscroll
font size
0
reset
how to read this tab
guitar tuner
edit
Autoscroll
slow
fast
+/-
esc
set tempo
stop
           Am        G                F
e ------------------------------------------------
b --------4/5------5-------------5-6-5-------4/5--
g ----5-7--------5---7---7-5-7-5-------7-5-7------___x 2 veces
d --7----------7----------------------------------
a ------------------------------------------------
e ------------------------------------------------

Am                 G
 Quería para vos esta noche cantar
F
 Antes de partir para no volver jamás
Am                  G                 F
 Queria cantar para poderte confirmar ounouno

              Am
 Que las promesas
                     G
 Hechas fueron de corazon
               F
 Y si no se realizan

 No es por falta de amor
           Am               G
 Es por dejar el karma al azar
       F
 Karma que no se puede cambiar ouno

            Am
 Como indelebles
             G
 E guardado justo aca
              F
 Cada mirada tuya

 Con sonrisa al despertar

       Am                     G
 Cada atrevimiento tuyo al soñar
             F
 Que lo indeleble se puede borrar ouno

         G
 Y ahora q te miro a lo lejos
             F
 Puedo ver q todo fue sincero no
G
 Y aunque no entendamos el efecto
                F
 Desprenderse tambien es amor verdadero no

 Coro:
              Am               G
 Si para olvidarme de este amor
                    F
 Tengo q borrar mi vida entera
                Am
 Lo haré por que no puedo mas
     G                      F
 Con el dolor de dejar pasar

 Lo q necesita mi corazon(bis)

 Q es dolor


Aca van las trompetas y se acompañan con estos acordes

Am G F

Am                        G              F
 Y despues de asumir el camino hasta aquí

 Bastara una vida pa dejar de sentir
Am                   G
 Tu amor q se hace necesario pa seguir
F
 Como el aire pa vivir

            Am
 Como indelebles
             G
 E guardado justo aca
              F
 Cada mirada tuya

 Con sonrisa al despertar

       Am                     G
 Cada atrevimiento tuyo al soñar
             F
 Que lo indeleble se puede borrar ouno

         G
 Y ahora q te miro a lo lejos
             F
 Puedo ver q todo fue sincero no
G
 Y aunque no entendamos el efecto
                F
 Desprenderse tambien es amor verdadero no

 Coro:
              Am               G
 Si para olvidarme de este amor
                    F
 Tengo q borrar mi vida entera
                Am
 Lo haré por que no puedo mas
     G                      F
 Con el dolor de dejar pasar

 Lo q necesita mi corazon(bis)


   Am                 G             F
e -7/09--09-09-09-09--6/7--7-7-7-7--11-11-11-11-11---14-14-14--
b -8/10--10-10-10-10--7/8--8-8-8-8--12-12-12-12-12--15-15-15---
g ------------------------------------------------------------- x 3
d -------------------------------------------------------------
a -------------------------------------------------------------
e -------------------------------------------------------------

   Am                 G             F
e -7/09--09-09-09-09--6/7--7-7-7-7-----------------------------
b -8/10--10-10-10-10--7/8--8-8-8-8-----------------------------
g ---------------------------------10-9-7-9-7-5-7-5-4-5-7-7---
d -------------------------------------------------------------
a -------------------------------------------------------------
e -------------------------------------------------------------


Trompetas acompañadas por los acordes
Am G F

Acordes
   Am     G     F
e|--5--|--3--|--1--|
B|--5--|--3--|--1--|
G|--5--|--4--|--2--|
D|--7--|--5--|--3--|
A|--7--|--5--|--3--|
E|--5--|--3--|--1--|

una rechimba de tema
cualquier duda o comentario judacalo2@

            
            
Suggest correction
Creating personal tab
Creating personal tab
You can edit any tab online and save it as your Personal.

You can edit, replace or remove any tab part or add personal notes – all changes will be seen only by you.

Personal tabs can be accessed anytime from any device, even offline.
Learn more »
Give kudos to tab author, rate the tab!
1 2 3 4 5
comments
print report bad tab
guest
Wanna post a correction for this tab? Suggest correction