Oops, an error
Loading. Please wait.

Eternity tab

by Proxy
214 views 1 this week
no commentswrite comment
1 2 3 4 5
3 more votes to show rating
add to favorites
×
Save as Personal and add changes to this tab that will be seen only by you. Learn more ›
×
You can save this tab as Personal to edit and correct it or add notes. All changes will be seen only by you. Learn more »
launch autoscroll
font size
0
reset
how to read this tab
guitar tuner
edit
Autoscroll
slow
fast
+/-
esc
set tempo
stop
Author
Difficulty
this is a southy african christian band thery are really good here are they link

http://www.proxyworship.com/

                 palm muted
 <-------------------------------------------->
e|--------|---------------------------------------|
b|--------|---------------------------------------|   x4
g|--------|---------------------------------------|
d|-7-7-8-7|2x--7-7-8-7-10-7-8-7-------------------|
a|-8------|----8----------------------------------|
e|--------|---------------------------------------|

play this bit when the drums come in and then palm mute it when the verse starts
e------|--------|--------|
b------|--------|--------|
g------|--------|--------|
d-3----|--8-----|-10-----|
a-3-x14|--8-x10-|-10-x4--|
e-1----|--6-----|-8------|


chorus
e----|-----|----|-----|----------|
b----|-----|----|-----|----------|
g----|-----|----|-----|----------|
d-3--|-10--|-8--|-12--|-10x4-----|
a-3x6|-10x6|-8x6|-12x4|-10-------|
e-1--|-8---|-6--|-10--|-8--------|

            
            
Suggest correction
Creating personal tab
Creating personal tab
You can edit any tab online and save it as your Personal.

You can edit, replace or remove any tab part or add personal notes – all changes will be seen only by you.

Personal tabs can be accessed anytime from any device, even offline.
Learn more »
Give kudos to tab author, rate the tab!
1 2 3 4 5
comments
print report bad tab
guest
You may want to rate the tab now too:
select rating
Wanna post a correction for this tab? Suggest correction