Oops, an error
Loading. Please wait.

Until Then solo tab

by Prozak
412 views 3 this week
2 commentsread comments
1 2 3 4 5
1 last vote to show rating
add to favorites
×
Save as Personal and add changes to this tab that will be seen only by you. Learn more ›
×
You can save this tab as Personal to edit and correct it or add notes. All changes will be seen only by you. Learn more »
launch autoscroll
font size
0
reset
how to read this tab
guitar tuner
edit
Autoscroll
slow
fast
+/-
esc
set tempo
stop
Author
Difficulty
---------------------------------------------------------------------------------------------------------------
                                          Artist - Prozak
                                         *****************
                                         Song - Until Then
                                        *******************
                                        Tabbed By - Ayreon77
                                       **********************
---------------------------------------------------------------------------------------------------------------
Tuning = Standard


02:27
e|----------------|--------------------------|-------------h------|-----------b-------------------------------|
B|----------------|---------b----------------|--s---9-11--9-11~~~-|----14-16-16-14-16----14-------------14----|
G|---------6-5~~~-|--s--6-8-8-6-8---6-8-6~~~-|-8\10---------------|-15----------------15----15----13-15----15-|
D|--s--6-8--------|-6\8-----------8----------|--------------------|----------------------------15-------------|
A|-6\8------------|--------------------------|--------------------|-------------------------------------------|
E|----------------|--------------------------|--------------------|-------------------------------------------|


e|---h--p------------------|--h-p------6--------------------------|-----6---b--b-|
B|-13-14-13----13--------s-|-6-9-6---6--------------s-------------|-b-6---6-9--9-|
G|----------15----15-13--\-|-------9-----9-8-6---6-8\9-6-8---6--6-|-8------------|
D|-------------------------|-------------------8-----------8------|--------------|
A|-------------------------|--------------------------------------|--------------|
E|-------------------------|--------------------------------------|--------------|


e|-b--------------|---------------------------------------|-------------------------9-------|
B|-9-6------------|---------------------------------------|----------------s---9-11---11~~~-|
G|-----8-6--8-6---|-6--p----------------------------------|---------6---6-8\10--------------|
D|--------------8-|---8-6---8-6---6----s-------s----------|----s--6---8---------------------|
A|----------------|-------8-----8---8-6\4---4-6\4---------|-4-6\8---------------------------|
E|----------------|-----------------------6-------6-4-6~~-|---------------------------------|

03:01
  rake
e|----br------------------|----------------------|--brp------------------------|
B|---16--14-16-14----14~~-|---p------------14----|-16--14----16----14-14-------|
G|--x-------------15------|-15-13----13-15----15-|--------15----15-------15~~~-|
D|-x----------------------|-------15-------------|-----------------------------|
A|------------------------|----------------------|-----------------------------|
E|------------------------|----------------------|-----------------------------|


e|-------------------------------------------|
B|----------b--b---br----------------------s-|
G|-15-13-15---15--15--13----15----13-15-~~~\-|
D|-----------------------15----15------------|
A|-------------------------------------------|
E|-------------------------------------------|



ENJOY...........
Suggest correction
Creating personal tab
Creating personal tab
You can edit any tab online and save it as your Personal.

You can edit, replace or remove any tab part or add personal notes – all changes will be seen only by you.

Personal tabs can be accessed anytime from any device, even offline.
Learn more »
Give kudos to tab author, rate the tab!
1 2 3 4 5
comments
print report bad tab
2 comments total.
0 reply
DON CZARSKI [tm] 27,931 Jul 30, 2015 11:34 AM

Great job on the solo as always....

0 reply
ayreon77 21,833 Jul 30, 2015 02:58 PM

thx don i try

guest
You may want to rate the tab now too:
select rating
Wanna post a correction for this tab? Suggest correction