Oops, an error
Loading. Please wait.

Strange Disease tab

version 1
version 1

Whole song

Interactive

by Prozzak
4,005 views 1 this week
2 commentsread comments
1 2 3 4 5
2 more votes to show rating
add to favorites
×
Save as Personal and add changes to this tab that will be seen only by you. Learn more ›
×
You can save this tab as Personal to edit and correct it or add notes. All changes will be seen only by you. Learn more »
launch autoscroll
font size
0
reset
how to read this tab
guitar tuner
edit
Autoscroll
slow
fast
+/-
esc
set tempo
stop
Song: Strange Disease 
   Album: HotShow 
   Date of Release: October, 1998. 
   Artist: Prozzak (rocks) PLZ visit my Prozzak Webpage! 
   http://members.xoom.com/prozzakhs/index.htm 


   Well this is a pretty simple song. Here is the basic part. 

   E|---------- 
   B|---------- 
   G|---------- This is really easy to play and learn. 
   D|-7-7---5-2 
   A|-7-7---5-2 
   E|-5-5---3-0 

   I'll give you the timing for the first line 

   A little sexual fru---stra---tion 

   E|------------------- 
   B|------------------- 
   G|------------------- 
   D|--7------7-----5--2 
   A|--7------7-----5--2 And so on. Just repeat it. 
   E|--5------5-----3--0 

   When it comes to "Two weeks ago" It changes to this. 
   ! IS A PAUSE. There is a slit pause there. 
   E|------------------------------------- 
   B|------------------------------------- 
   G|------------------------------------- 
   D|-13--!-13--11--!-11--9--!-9--11--!-11 
   A|-13--!-13--11--!-11--9--!-9--11--!-11 Repeat this again. 
   E|-11--!-11--09--!-09--7--!-7--09--!-09 

   Then after that part it comes to the middle section. 

   Play this: 

   E|----------------------------- 
   B|----------------------------- 
   G|----------------------------- 
   D|----------------------------- 
   A|----------------------------- 
   E|--0-2-------7-----0-2-------7 

   Milo's solo parts, figure out where they are yourself, I'm too tired to do 
   it. The only note you play is A 

   E|---------------------------- 
   B|---------------------------- 
   G|---------------------------- 
   D|---------------------------- 
   A|--0----0-3-4---5-7--10-11-12 Play this twice. 
   E|---------------------------- 

   Then it changes to this: 

   E|----------------------------- 
   B|----------------------------- 
   G|----------------------------- 
   D|----------------------------- Play this twice too but on the second 
   A|--4----4-7-8---9-11--14-15-16 one, don't play the last two notes. 
   E|----------------------------- 


   When it goes to double time when he sings "I don't want to go to work, my 
   libido's gone beserk, I don't want nothing to eat, walking up and down 
   street" Play this: 

   E|------------------------------- 
   B|------------------------------- 
   G|------------------------------- 
   D|-7-7-7-7--5-5-5-5--7-7-7-7--5-5 
   A|-7-7-7-7--5-5-5-5--7-7-7-7--5-5 
   E|-5-5-5-5--3-3-3-3--5-5-5-5--3-3 Start this at "work" 

   This is the whole song so if you have any questions or comments, requests, 
   please email me at junin_chu@hotmail.com. I can't guarentee the requests. 
   Song Tabbed my Junin Chu 

            
            
Suggest correction
Creating personal tab
Creating personal tab
You can edit any tab online and save it as your Personal.

You can edit, replace or remove any tab part or add personal notes – all changes will be seen only by you.

Personal tabs can be accessed anytime from any device, even offline.
Learn more »
Give kudos to tab author, rate the tab!
1 2 3 4 5
comments
print report bad tab
2 comments total.
-2 reply
oldmoon 10 Apr 01, 2002 07:00 PM

prozzak is gay!!!

+1 reply
seandabomb 110 Apr 23, 2006 12:39 PM

the "only two weeks ago" part doesnt sound right.. and i think the solo is easier if u play it along the A,D, and G strings like:

e-----------------------
b-----------------------
G-----------------0-1-2-
D------------0-2--------
A--0--0-3-4-------------
E-----------------------

but other than that, thx for the tab, its good

guest
Wanna post a correction for this tab? Suggest correction