Oops, an error
Loading. Please wait.

Gangnam Style Bass Tab

version 1
version 1

Whole song

Interactive

by PSY
54,622 views 3 this week
3 commentsread comments
1 2 3 4 5
x 22
add to favorites
launch autoscroll
font size
0
reset
guitar tuner
Autoscroll
slow
fast
+/-
esc
set tempo
stop
Help us to improve Ultimate-Guitar.com Take our survey!
×
Author
Difficulty
novice
Artist: PSY
Song: Gangnam Style
Tab: Bass (Standard tuning)

After hearing Gangnam style so many times i thought i'd try to enjoy it so I picked up 
my bass and started playing along, i realized there isn't a tab on here yet so...


This is roughly how the bass part sounds
probably not 100% correct but sounds close enough.
G|--------------7-|----------------|
D|----9--9----9---|---9-9-9--7-----|
A|2/-------2\-----|2/----------9-7-|
E|----------------|----------------| X3

G|--------------7-|----------------|
D|----9--9----9---|----------------|
A|2/-------2\-----|7--7--7--9--9--9|
E|----------------|----------------| X1

Or alternatively you can
play it like this:
G|--------------7-|----------------|
D|----9--9--7-9---|----9--9--7-----|
A|2/--------------|2/----------9-7-|
E|----------------|----------------| X3

G|--------------7-|----------------|
D|----9--9--7-9---|----------------|
A|2/--------------|7--7--7--9--9--9|
E|----------------|----------------| X1
Suggest correction
comments
print report bad tab
3 comments total.
+1 reply
too0003 10 Jan 15, 2013 03:07 PM

awsome tab. nice ans ezy.

0 reply
Bassesome 10 Apr 17, 2013 08:16 AM

Cool, would you like to make PSY Gentleman bass tabs? This kid is awesome: http://www.youtube.com/watch?v=UDCXDE-aP54.

0 reply
qwerty1992 10 Jan 22, 2016 04:07 AM

Khgvkhgvhgchgchgchgchgchgchgchgc jgvjgvuhvugvuhvuhvuhv hvhv gig gig hvhv gig hvhv go gvgvgv

guest
You may want to rate the tab now too:
select rating
Wanna post a correction for this tab? Suggest correction