Oops, an error
Loading. Please wait.

Gangnam Style Tab

version 1
version 1

Intro

Whole song

Interactive

by PSY
44,149 views 3 this week
2 commentsread comments
1 2 3 4 5
x 22
add to favorites
launch autoscroll
font size
0
reset
how to read this tab
guitar tuner
Autoscroll
slow
fast
+/-
esc
set tempo
stop
Help us to improve Ultimate-Guitar.com Take our survey!
×
Difficulty
novice
e|--7--7----7---10|--7---7-7-5-2-0-|
b|0---0---0----0--|0---0-----------|
g|----------------|----------------|
D|----------------|----------------|
A|----------------|----------------|
E|----------------|----------------|


e|0-0-0-2-2-2-----|
b|0-0-0-2-2-2-----|
g|0-0-0-2-2-2-----|
D|----------------|
A|----------------|
E|----------------|
Suggest correction
comments
print report bad tab
2 comments total.
+1 reply
maraguirre 31 Apr 03, 2013 09:39 AM

I'm having a hard time believing this actually made it to be posted on the site. This is inaccurate and incomplete.

0 reply
tara.navy 10 Oct 21, 2013 07:31 AM

i believe it goes like this :

e|--7--7----7---10|--7-7---7-5-3-2-|
b|0-------0-------|0---------------|
g|----------------|----------------|
D|----------------|----------------|
A|----------------|----------------|
E|----------------|----------------|

guest
You may want to rate the tab now too:
select rating
Wanna post a correction for this tab? Suggest correction