Oops, an error
Loading. Please wait.

Gangnam Style Bass Tab

version 2
version 2

Whole song

Interactive

by PSY
641 views 6 this week
no commentswrite comment
1 2 3 4 5
excellent!
x 2
add to favorites
launch autoscroll
font size
0
reset
guitar tuner
Tab Pro tools
  • play this tab
  • loop segment
  • change instrument
  • show fretboard
  • metronome
×
Best way to learn
"Gangnam Style"
Autoscroll
slow
fast
+/-
esc
set tempo
stop
Contributor
Difficulty
intermediate
-------------------------------------------------------------------------------
                             Gangnam Style - Psy
-------------------------------------------------------------------------------
Tabbed by: BassNTuba

Tuning: EADG


Just Repeat this a lot! Also sounds good Slapped & Popped!
G|-----------------------------------------------------------------------------|
D|-----9--9-----/9--9-12----------9-9--9-7-------------------------------------|
A|-----------------------------------------9-7---------------------------------|
E|-/7------------------------/7------------------------------------------------|

G|-----------------------------------------------------------------------------|
D|-----9--9-----/9--9-12----------9-9--9-7-------------------------------------|
A|-----------------------------------------9-7---------------------------------|
E|-/7------------------------/7------------------------------------------------|
comments
We did not receive enough feedback on this tab! Please rate:
print report bad tab
1 2 3 4 5
I want to post or [tab]
guest
You may want to rate the tab now too:
select rating
Please do not post tabs as comments. Select "correction" instead!