Oops, an error
Loading. Please wait.

Gangnam Style Tab

version 4
version 4

Whole song

Interactive

by PSY
19,070 views 12 this week
5 commentsread comments
1 2 3 4 5
x 6
add to favorites
launch autoscroll
font size
0
reset
how to read this tab
guitar tuner
Autoscroll
slow
fast
+/-
esc
set tempo
stop
Help us to improve Ultimate-Guitar.com Take our survey!
×
Author
Difficulty
novice
-----------------------------------------------------------------
GANGNAM STYLE - Psy
-----------------------------------------------------------------
Tabbed by: Mario A
E-mail: littleelmdad@gmail.com
Tuning: Standard

This is a guitar transcription of the bass line and power chords
for the entire song

Play 3X
e|---------------------------------------------------------------|
B|---------------------------------------------------------------|
G|---------------------------------------------------------------|
D|---------------------------------------------------------------|
A|---------------------------------------------------------------|
E|--/7--7--7--/7--7--/10-----/7--7--7--7--5--3--0----------------|


e|---------------------------------------------------------------|
B|---------------------------------------------------------------|
G|---------------------------------------------------------------|
D|---------------------------------------------------------------|
A|---------------------------2--2--2--4--4--4--------------------|
E|--/7--7--7--/7--7--/10-----0--0--0--2--2--2--------------------|


Play 3X
e|---------------------------------------------------------------|
B|---------------------------------------------------------------|
G|---------------------------------------------------------------|
D|---------------------------------------------------------------|
A|---------------------------------------------------------------|
E|--/7--7--7--/7--7--/10-----/7--7--7--7--5--3--0----------------|


e|---------------------------------------------------------------|
B|---------------------------------------------------------------|
G|---------------------------------------------------------------|
D|---------------------------------------------------------------|
A|---------------------------2--2--2--4--4--4--------------------|
E|--/7--7--7--/7--7--/10-----0--0--0--2--2--2--------------------|


Play 3X
e|---------------------------------------------------------------|
B|---------------------------------------------------------------|
G|---------------------------------------------------------------|
D|---------------------------------------------------------------|
A|---------------------------------------------------------------|
E|--/7--7--7--/7--7--/10-----/7--7--7--7--5--3--0----------------|


e|---------------------------------------------------------------|
B|---------------------------------------------------------------|
G|---------------------------------------------------------------|
D|---------------------------------------------------------------|
A|---------------------------2--2--2--4--4--4--------------------|
E|--/7--7--7--/7--7--/10-----0--0--0--2--2--2--------------------|


e|---------------------------------------------------------------|
B|---------------------------------------------------------------|
G|---------------------------------------------------------------|
D|---------------------------------------------------------------|
A|--5--5--5--5--7--7--7--7--7--7---------------------------------|
E|--3--3--3--3--5--5--5--5--5--5---------------------------------|


e|---------------------------------------------------------------|
B|---------------------------------------------------------------|
G|---------------------------------------------------------------|
D|---------------------------------------------------------------|
A|--9--9--9--9------9--9--9--11-11-12-12-------------------------|
E|--7--7--7--7------7--7--7--9--9--10-10-------------------------|


e|---------------------------------------------------------------|
B|---------------------------------------------------------------|
G|---------------------------------------------------------------|
D|---------------------------------------------------------------|
A|--5--5--5--5--7--7--7--7--7--7---------------------------------|
E|--3--3--3--3--5--5--5--5--5--5---------------------------------|


e|----------------------------Play this one for 17-16th notes----|
B|------------Play this one for 16-8th notes----|----------------|
G|-----------------------------------------|----|-------THEN-----|
D|-----------------------------------------V----V-------REST-----|
A|--4--4--4--4--4--4---4--4--4--4--4--4----4----4-------EIGHT----|
E|--2--2--2--2--2--2---2--2--2--2--2--2----2----2-------BEATS----|


Play 3X
e|---------------------------------------------------------------|
B|---------------------------------------------------------------|
G|---------------------------------------------------------------|
D|---------------------------------------------------------------|
A|---------------------------------------------------------------|
E|--/7--7--7--/7--7--/10-----/7--7--7--7--5--3--0----------------|


e|---------------------------------------------------------------|
B|---------------------------------------------------------------|
G|---------------------------------------------------------------|
D|---------------------------------------------------------------|
A|---------------------------2--2--2--4--4--4--------------------|
E|--/7--7--7--/7--7--/10-----0--0--0--2--2--2--------------------|


Play 3X
e|---------------------------------------------------------------|
B|---------------------------------------------------------------|
G|---------------------------------------------------------------|
D|---------------------------------------------------------------|
A|---------------------------------------------------------------|
E|--/7--7--7--/7--7--/10-----/7--7--7--7--5--3--0----------------|


e|---------------------------------------------------------------|
B|---------------------------------------------------------------|
G|---------------------------------------------------------------|
D|---------------------------------------------------------------|
A|---------------------------2--2--2--4--4--4--------------------|
E|--/7--7--7--/7--7--/10-----0--0--0--2--2--2--------------------|


Play 3X
e|---------------------------------------------------------------|
B|---------------------------------------------------------------|
G|---------------------------------------------------------------|
D|---------------------------------------------------------------|
A|---------------------------------------------------------------|
E|--/7--7--7--/7--7--/10-----/7--7--7--7--5--3--0----------------|


e|---------------------------------------------------------------|
B|---------------------------------------------------------------|
G|---------------------------------------------------------------|
D|---------------------------------------------------------------|
A|---------------------------2--2--2--4--4--4--------------------|
E|--/7--7--7--/7--7--/10-----0--0--0--2--2--2--------------------|


Play 3X
e|---------------------------------------------------------------|
B|---------------------------------------------------------------|
G|---------------------------------------------------------------|
D|---------------------------------------------------------------|
A|---------------------------------------------------------------|
E|--/7--7--7--/7--7--/10-----/7--7--7--7--5--3--0----------------|


e|---------------------------------------------------------------|
B|---------------------------------------------------------------|
G|---------------------------------------------------------------|
D|---------------------------------------------------------------|
A|---------------------------2--2--2--4--4--4--------------------|
E|--/7--7--7--/7--7--/10-----0--0--0--2--2--2--------------------|


e|---------------------------------------------------------------|
B|---------------------------------------------------------------|
G|---------------------------------------------------------------|
D|---------------------------------------------------------------|
A|--5--5--5--5--7--7--7--7--7--7---------------------------------|
E|--3--3--3--3--5--5--5--5--5--5---------------------------------|


e|---------------------------------------------------------------|
B|---------------------------------------------------------------|
G|---------------------------------------------------------------|
D|---------------------------------------------------------------|
A|--9--9--9--9------9--9--9--11-11-12-12-------------------------|
E|--7--7--7--7------7--7--7--9--9--10-10-------------------------|


e|---------------------------------------------------------------|
B|---------------------------------------------------------------|
G|---------------------------------------------------------------|
D|---------------------------------------------------------------|
A|--5--5--5--5--7--7--7--7--7--7---------------------------------|
E|--3--3--3--3--5--5--5--5--5--5---------------------------------|


e|----------------------------Play this one for 17-16th notes----|
B|------------Play this one for 16-8th notes----|----------------|
G|-----------------------------------------|----|-------THEN-----|
D|-----------------------------------------V----V-------REST-----|
A|--4--4--4--4--4--4---4--4--4--4--4--4----4----4-------EIGHT----|
E|--2--2--2--2--2--2---2--2--2--2--2--2----2----2-------BEATS----|


Play 3X
e|---------------------------------------------------------------|
B|---------------------------------------------------------------|
G|---------------------------------------------------------------|
D|---------------------------------------------------------------|
A|---------------------------------------------------------------|
E|--/7--7--7--/7--7--/10-----/7--7--7--7--5--3--0----------------|


e|---------------------------------------------------------------|
B|---------------------------------------------------------------|
G|---------------------------------------------------------------|
D|---------------------------------------------------------------|
A|---------------------------2--2--2--4--4--4--------------------|
E|--/7--7--7--/7--7--/10-----0--0--0--2--2--2--------------------|


Play 3X
e|---------------------------------------------------------------|
B|---------------------------------------------------------------|
G|---------------------------------------------------------------|
D|---------------------------------------------------------------|
A|---------------------------------------------------------------|
E|--/7--7--7--/7--7--/10-----/7--7--7--7--5--3--0----------------|


e|---------------------------------------------------------------|
B|---------------------------------------------------------------|
G|---------------------------------------------------------------|
D|---------------------------------------------------------------|
A|---------------------------2--2--2--4--4--4--------------------|
E|--/7--7--7--/7--7--/10-----0--0--0--2--2--2--------------------|


Play 4X
e|---------------------------------------------------------------|
B|---------------------------------------------------------------|
G|---------------------------------------------------------------|
D|---------------------------------------------------------------|
A|---------------------------------------------------------------|
E|--/7--7--7--/7--7--/10-----/7--7--7--7--5--3--0----------------|

                                
e|----------------------------| e--------------------------------|
B|-R-R-R-R--------------------| B-R-R-R-R------------------------|
G|-E-E-E-E--------------------| G-E-E-E-E------------------------|
D|-S-S-S-S--------------------| D-S-S-S-S------------------------|
A|-T-T-T-T--2--2--2--4--4--4--| A-T-T-T-T--9---------------------|
E|----------0--0--0--2--2--2--| E----------7---------------------|


Play 3X
e|---------------------------------------------------------------|
B|---------------------------------------------------------------|
G|---------------------------------------------------------------|
D|---------------------------------------------------------------|
A|---------------------------------------------------------------|
E|--/7--7--7--/7--7--/10-----/7--7--7--7--5--3--0----------------|


e|---------------------------------------------------------------|
B|---------------------------------------------------------------|
G|---------------------------------------------------------------|
D|---------------------------------------------------------------|
A|---------------------------2--2--2--4--4--4--------------------|
E|--/7--7--7--/7--7--/10-----0--0--0--2--2--2--------------------|


e-------------------------------------|
B------R-R-R-R------------------------|
G------E-E-E-E------------------------|
D------S-S-S-S------------------------|
A------T-T-T-T--9---------------------|
E---------------7---------------------|


************************************

| /   slide up
| \   slide down
| h   hammer-on
| p   pull-off
| ~   vibrato
| +   harmonic
| x   Mute note
| b   Bend
| pb  Pre-bend
| br  Bend release
| pbr Pre-bend release
| brb Bend release bend
Suggest correction
comments
print report bad tab
5 comments total. Showing first comments.
0 reply
maraguirre 31 Apr 21, 2013 10:37 PM

E|--/7--7--7--/7--7--/10-----/7--7--7--7--5--3--0----------------|

Should have been:
E|--/7--7--7--/7--7--/10-----/7--7--7--7-\5-\3-\0----------------|

0 reply
gavhavel 10 Nov 03, 2016 08:21 PM

didn't like this contribution

0 reply
gavhavel 10 Nov 03, 2016 08:21 PM

didn't like this contribution

guest
You may want to rate the tab now too:
select rating
Wanna post a correction for this tab? Suggest correction