Oops, an error
Loading. Please wait.

Cornflake tab

version 1
version 1

Whole song

  • This is one of the guitars in the song, which uses... Show more
91 views 24 this week
no commentswrite comment
1 2 3 4 5
1 last vote to show rating
add to favorites
×
Save as Personal and add changes to this tab that will be seen only by you. Learn more ›
×
You can save this tab as Personal to edit and correct it or add notes. All changes will be seen only by you. Learn more »
launch autoscroll
font size
0
reset
how to read this tab
guitar tuner
edit
Autoscroll
slow
fast
+/-
esc
set tempo
stop
[Intro] - Bass

e|---------------------------------------|---------------------------------|
B|---------------------------------------|---------------------------------|
G|---10----------------------------------|---10----------------------------|
D|------8----------------8-8h9p8---------|------8----------------8-8h9p8---|
A|-8------11-8------8-11-----------------|-8------11-8------8-11---------9-|
E|---------------11--------------10-/-11-|---------------11----------------|

e|---------------------------------------|---------------------------------|
B|---------------------------------------|---------------------------------|
G|---10----------------------------------|---10----------------------------|
D|------8----------------8-8h9p8---------|------8--------------------------|
A|-8------11-8------8-11-----------------|-8------11-8------8--------------|
E|---------------11--------------10-/-11-|---------------11---11---5---6---|  x2

This intro is played by the bass guitar only. It's only different from the primary riff in the last 
two notes of the 4th measure.

[Riff 1]
e|---------------------------------------|---------------------------------|
B|---------------------------------------|---------------------------------|
G|---10----------------------------------|---10----------------------------|
D|------8----------------8-8h9p8---------|------8----------------8-8h9p8---|
A|-8------11-8------8-11-----------------|-8------11-8------8-11---------9-|
E|---------------11--------------10-/-11-|---------------11----------------|

e|---------------------------------------|---------------------------------|
B|---------------------------------------|---------------------------------|
G|---10----------------------------------|---10----------------------------|
D|------8----------------8-8h9p8---------|------8--------------------------|  x2
A|-8------11-8------8-11-----------------|-8------11-8------8--------------|
E|---------------11--------------10-/-11-|---------------11---11-10-11-10--|  

[Riff 2]
e|---------------------|---------------------|
B|---------------------|---------------------|
G|---10-8--------------|-10-8---------8/10---|
D|--------10-8-10------|------10-8-10--------|
A|-8--------------11-8-|-------------------9-|
E|---------------------|---------------------|

e|---------------------|-----------------------------|
B|---------------------|-----------------------------|
G|---10-8--------------|-10-8---------8/10-----------|
D|--------10-8-10------|------10-8-10------7-8-9-----|
A|-8--------------11-8-|-------------------------9-~8|
E|---------------------|-----------------------------|


[Verse] - Chords strummed under vocals

F         F#                G#                 B
I’m sorry I almost, started taking things too serious

F         F#                G#                    B
I got so caught up in, a thinking binge, and let life take over

F         F#                G#                B
                                     And let life take over

F         F#                G#                B
                                     And let life take over


While lead guitar plays the same chords higher up the neck:

    F     F#    G#    B
 
e|--13----9-----11----11--|
B|--10----11----13----12--|
G|--10----11----13----11--|
D|--10----11----13----14--|
A|------------------------|
E|------------------------|
He plays some small improvisations on these.

[Riff 1]
e|---------------------------------------|---------------------------------|
B|---------------------------------------|---------------------------------|
G|---10----------------------------------|---10----------------------------|
D|------8----------------8-8h9p8---------|------8----------------8-8h9p8---|
A|-8------11-8------8-11-----------------|-8------11-8------8-11---------9-|
E|---------------11--------------10-/-11-|---------------11----------------|

e|---------------------------------------|---------------------------------|
B|---------------------------------------|---------------------------------|
G|---10----------------------------------|---10----------------------------|
D|------8----------------8-8h9p8---------|------8--------------------------|  x2
A|-8------11-8------8-11-----------------|-8------11-8------8--------------|
E|---------------11--------------10-/-11-|---------------11---11-10-11-10--|  

[Riff 2]
e|---------------------|---------------------|
B|---------------------|---------------------|
G|---10-8--------------|-10-8---------8/10---|
D|--------10-8-10------|------10-8-10--------|
A|-8--------------11-8-|-------------------9-|
E|---------------------|---------------------|

e|---------------------|-----------------------------|
B|---------------------|-----------------------------|
G|---10-8--------------|-10-8---------8/10-----------|
D|--------10-8-10------|------10-8-10------7-8-9-----|
A|-8--------------11-8-|-------------------------9-~8|
E|---------------------|-----------------------------|

[Bridge] 
Guitar and Bass both just repeatedly hit F note throughout

F
Time’s been fluttering by and I can’t keep track of it
Every moment decides how my intelligence rests
I’ve been trying to be something different
Away from the automatic existences

[Riff 1]
e|---------------------------------------|---------------------------------|
B|---------------------------------------|---------------------------------|
G|---10----------------------------------|---10----------------------------|
D|------8----------------8-8h9p8---------|------8----------------8-8h9p8---|
A|-8------11-8------8-11-----------------|-8------11-8------8-11---------9-|
E|---------------11--------------10-/-11-|---------------11----------------|

e|---------------------------------------|---------------------------------|
B|---------------------------------------|---------------------------------|
G|---10----------------------------------|---10----------------------------|
D|------8----------------8-8h9p8---------|------8--------------------------|  x2
A|-8------11-8------8-11-----------------|-8------11-8------8--------------|
E|---------------11--------------10-/-11-|---------------11---11-10-11-10--|  

[Riff 2]
e|---------------------|---------------------|
B|---------------------|---------------------|
G|---10-8--------------|-10-8---------8/10---|
D|--------10-8-10------|------10-8-10--------|
A|-8--------------11-8-|-------------------9-|
E|---------------------|---------------------|

e|---------------------|-----------------------------|
B|---------------------|-----------------------------|
G|---10-8--------------|-10-8---------8/10-----------|
D|--------10-8-10------|------10-8-10------7-8-9-----|
A|-8--------------11-8-|-------------------------9-~8|
E|---------------------|-----------------------------|

************************************
| h   Hammer-on
| p   Pull-off
| /   Slide up
| ~   Vibrato
************************************

            
            
Suggest correction
Creating personal tab
Creating personal tab
You can edit any tab online and save it as your Personal.

You can edit, replace or remove any tab part or add personal notes – all changes will be seen only by you.

Personal tabs can be accessed anytime from any device, even offline.
Learn more »
Give kudos to tab author, rate the tab!
1 2 3 4 5
comments
print report bad tab
guest
You may want to rate the tab now too:
select rating
Wanna post a correction for this tab? Suggest correction