Oops, an error
Loading. Please wait.

Hokey Fuckin Pokey bass

1,288 views 1 this week
1 commentread comment
1 2 3 4 5
3 more votes to show rating
add to favorites
×
Save as Personal and add changes to this tab that will be seen only by you. Learn more ›
×
You can save this tab as Personal to edit and correct it or add notes. All changes will be seen only by you. Learn more »
launch autoscroll
font size
0
reset
guitar tuner
edit
Autoscroll
slow
fast
+/-
esc
set tempo
stop
Author
Difficulty
This is the hokey fuckin pokey. this is how i play it. it sounds alright.
im prolly missing a part but this is just the general idea of the song.
Rate and comment as this is my first tab. Corrections also appreciated. ENJOY!

Tuning- CGCF

Intro 
F|-------------------------------------------------------|
C|-------------------------------------------------------|
G|-------------------------------------------------------|
C|-0h2-2-0h2-2-0h3-3-0h5-5-------------------------------|

then... (last part)
F|---------------------------------------|
C|---------------------------------------|
G|---------------------------------------|
C|8~----8~----8--8--8--8-----------------|

Verse (repeat as necessary)
F|--------------------------------------------------------|
C|--------------------------------------------------------|
G|--------------------------------------------------------|
C|0-0-00-00-00-000----------------------------------------|

Bridge thingy (figure it out)(Slide down from the 12 fret during drumroll)
F|----------------------------------7/--11h12p11h12p11h12---|
C|----------------------------------------------------------|
G|----------------------------------------------------------|
C|----------------------------------------------------------|

then you play this....
F|-----------------------------------------------------|
C|-----------------------------------------------------|
G|-----------------------------------------------------|
C|0h2-2-0h2-2-0h2-2-0h2-2-0h2-2-0h2-2-0h2-2-0h2-2-0h2-2|

after that...
F|---------------------------------------|
C|---------------------------------------|
G|---------------------------------------|
C|8~----8~----8--8--8888-----------------|

Verse 2 (repeat as necessary)
F|--------------------------------------------------------|
C|--------------------------------------------------------|
G|--------------------------------------------------------|
C|0-0-00-00-00-000----------------------------------------|

then this again... (Slide down from the 12 fret during drumroll)
F|----------------------------------7/--11h12p11h12p11h12---|
C|----------------------------------------------------------|
G|----------------------------------------------------------|
C|----------------------------------------------------------|

then you play this.... 
F|-----------------------------------------------------|
C|-----------------------------------------------------|
G|-----------------------------------------------------|
C|0h2-2-0h2-2-0h2-2-0h2-2-0h2-2-0h2-2-0h2-2-0h2-2-0h2-2|

then....
F|-----------------------------------------------------|
C|-----------------------------------------------------|
G|-----------------------------------------------------|
C|0h2-2-0h2-2-0h2-2-0h2-2-0h2-2-0h2-2-0h2-2-0h2-2-3----|

Just the bass and drums part...
F|-------------------------------------------------------|
C|-------------------------------------------------------|
G|-------------------------------------------------------|
C|-0h2-2-0h2-2-0h3-3-0h5-5-------------------------------|

thats what its all about! BITCH!!







            
            
Suggest correction
Creating personal tab
Creating personal tab
You can edit any tab online and save it as your Personal.

You can edit, replace or remove any tab part or add personal notes – all changes will be seen only by you.

Personal tabs can be accessed anytime from any device, even offline.
Learn more »
Give kudos to tab author, rate the tab!
1 2 3 4 5
comments
print report bad tab
1 comment total.
0 reply
escalade 346 Jan 04, 2009 02:20 PM

it's in drop C#, and the lil diddly thing is 9h10p9h10, not 11 and 12. and theres some other little slides and stuff you forgot.

guest
You may want to rate the tab now too:
select rating
Wanna post a correction for this tab? Suggest correction