Oops, an error
Loading. Please wait.

Largiloquent Dithyramb tab

1,508 views 1 this week
1 commentread comment
1 2 3 4 5
2 more votes to show rating
add to favorites
×
Save as Personal and add changes to this tab that will be seen only by you. Learn more ›
×
You can save this tab as Personal to edit and correct it or add notes. All changes will be seen only by you. Learn more »
launch autoscroll
font size
0
reset
how to read this tab
guitar tuner
edit
Autoscroll
slow
fast
+/-
esc
set tempo
stop
we'll see how this goes.
one of the most metal songs ever!!
you'll have to figure out a lot of the rythms.

Largiloquent Dithyramb
Psychostick
We Couldn't Think Of a Title

Drop C#

Lyrics:
Dog Food
Taste Good
With Cheese!!

------------------------------|
------------------------------|
------------------------------|
--------------------------6---|
0--0--0--1--1-2-2-333444556---|
0--0--0--1--1-2-2-333444556---|
.  .  .  .  . . . ........

----------------------|  |----|
----------------------|  |----|
----------------------|  |----|
----------------------|x7|7---|
7-7-7-x7-7-x7-7-3-3-3-|  |7---|
7-7-7-x7-7-x7-7-3-3-3-|  |7---|
(Make the notes . . .
very staccato 1-4)

                                1.   2.   3.   4.
-----------------------------------||---||---||-----|
-----------------------------------||---||---||-----|
-----------------------------------||---||---||-----|
-----------------------------------||-0-||---||-0---|
777777776666-6-6-3-3--3--3-1-3-1---||-0-||---||-0---|
777777776666-6-6-3-3--3--3-1-3-1---||-0-||-\-||-0---|
............ . . . .  .  . . . .

----------------------------------------------------------------------|
----------------------------------------------------------------------|
----------------------------------------------------------------------|
----------------------------------------------------------------------|
1-0-0-1-0-0----1-0-0-1-0-0-----1-0-0-1-0-0-------1-0-0-1-0-0----------|
1-0-0-1-0-0-3--1-0-0-1-0-0-3-4-1-0-0-1-0-0-3-4-5-1-0-0-1-0-0-3-4-5-6--|
. . . . . .    . . . . . .     . . . . . .       . . . . . .

---------------------------------------------------------------------------|
---------------------------------------------------------------------------|
---------------------------------------------------------------------------|
---------------------------------------------------------------------------|
7-1-0-0-1-0-0-----1-0-0-1-0-0-------1-0-0-1-0-0----------------------------|
7-1-0-0-1-0-0-3-4-1-0-0-1-0-0-3-4-5-1-0-0-1-0-0-3-4-5-6-7-8-9-10-11-12-13--|
  . . . . . .     . . . . . .       . . . . . .

-----------------------------------------------|
-----------------------------------------------|
------------------11-10-------------------3--6-|
0--1--4--3--0--1--11-10-0--1--4--3--0--1--3--6-|
0--1--4--3--0--1--9--8--0--1--4--3--0--1--1--4-|
0--1--4--3--0--1--------0--1--4--3--0--1-------|

-------------------------------------------------------------|
-------------------------------------------------------------|
-------------------------------------------------------------|
-------------------------------------------------------------|
000-000----000-000-000----000-000-000----000-000-000---------|x2
000-000-60-000-000-000-60-000-000-000-60-000-000-000-60-30-3-|
... ...    ... ... ...    ... ... ...    ... ... ...

------------------------------------------------------------|
------------------------------------------------------------|
------------------------------------------------------------|
------------------------------------------------------------|
000----000----000----000----0---0---0---0---0---0-----------|
000-60-000-60-000-60-000-60-0-6-0-6-0-6-0-6-0-6-0-6-6-6-6-6-|
...    ...    ...    ...    .   .   .   .   .   .

----------------------|  |----|
----------------------|  |----|
----------------------|  |----|
----------------------|x8|0---|
7-7-7-x7-7-x7-7-3-3-3-|  |0---|
7-7-7-x7-7-x7-7-3-3-3-|  |0---|
. . .  . .  . . . . .
palm mute 1-4
no palm mutes 5-8
                x2               x2            x2           x2
|---------|  |------------||------------||-----------||-----------|
|---------|  |------------||------------||-----------||-----------|
|---------|x4|------------||------------||-----------||-----------|
|---------|  |------------||------------||-----------||-----------|
|0-1-2-1-0|  |0-1-2-3-2-1-||3-4-5-6-5-4-||4-5-6-7-6-5||5-6-7-8-7-6|
|0-1-2-1-0|  |0-1-2-3-2-1-||3-4-5-6-5-4-||4-5-6-7-6-5||5-6-7-8-7-6|
 . . . . .    . . . . . .   . . . . . .   . . . . . .  . . . . . .

  x2               x2
|-----------||------------||---------------------------------------------------|
|-----------||------------||---------------------------------------------------|
|-----------||------------||---------------------------------------------------|
|-----------||------------||---------------------------------------------------|
|6-7-8-9-8-7||7-8-9-10-9-8||7-9-8-7-6-8-7-6-5-7-6-5-4-6-5-4-3-5-4-3-2-4-3-2-1--|
|6-7-8-9-8-7||7-8-9-10-9-8||7-9-8-7-6-8-7-6-5-7-6-5-4-6-5-4-3-5-4-3-2-4-3-2-1--|
 . . . . . .  . . . .  . .  . . . . . . . . . . . . . . . . . . . . . . . . .

----------------------------------------------------|
----------------------------------------------------|
---7---8---9---8h9p8h9p8h9p8--11--12--13--14-15-16--|
---6---7---8------------------10--11--12--13-14-15--|
---5---6---7------------------9---10--11--12-13-14--|
----------------------------------------------------|

-----------------------|
-----------------------|
-----------------------|
------1--0--------1--0-|x2
0--0--1--0--0000--1--0-|
0--0--1--0--0000--1--0-|
.  .        ....

---------------------|
---------------------|
---------------------|
---------------------|x3
0-0-------000000-----|
0-0-1bp0--0000001bp0-|
. .       ......

-----------------------|
-----------------------|
-----------------------|
------1--0--------1--0-|x4
0--0--1--0--0000--1--0-|
0--0--1--0--0000--1--0-|
.  .        ....

slower
-----------------------|
-----------------------|
-----------------------|
------1--0--------1--0-|x3
0--0--1--0--0000--1--0-|
0--0--1--0--0000--1--0-|
.  .        ....

slowest
-----------------------|
-----------------------|
-----------------------|
------1--0--------1--0-|x2
0--0--1--0--0000--1--0-|
0--0--1--0--0000--1--0-|
.  .        ....

---------------------  ---|
---------------------  ---|
---------------------  ---|
---------------------x3-0-|
0-0-------000000-----  -0-|
0-0-1bp0--0000001bp0-  -0-|
. .       ......

Hello? lol

            
            
Suggest correction
Creating personal tab
Creating personal tab
You can edit any tab online and save it as your Personal.

You can edit, replace or remove any tab part or add personal notes – all changes will be seen only by you.

Personal tabs can be accessed anytime from any device, even offline.
Learn more »
Give kudos to tab author, rate the tab!
1 2 3 4 5
comments
print report bad tab
1 comment total.
0 reply
Hyks97 838 Feb 22, 2012 07:31 AM

During the 0-1-4-3-0-1- part it actually goes like

-0-1-4-3-0-1--10-9-
-0-1-4-3-0-1--8--7-
-0-1-4-3-0-1--8--7-

And not
-0-1-4-3-0-1-11-10-
-0-1-4-3-0-1-9--8--
-0-1-4-3-0-1-------

guest
You may want to rate the tab now too:
select rating
Wanna post a correction for this tab? Suggest correction