Oops, an error
Loading. Please wait.

A Planetary Discipline Tab

version 1
version 1

Whole song

Interactive

997 views 12 this week
no commentswrite comment
1 2 3 4 5
x 3
add to favorites
launch autoscroll
font size
0
reset
how to read this tab
guitar tuner
Autoscroll
slow
fast
+/-
esc
set tempo
stop
Help us to improve Ultimate-Guitar.com Take our survey!
×
Author
Difficulty
Tuning
advanced
D A D G B E
Tuning D A D G B E (dropped D)

[Riff 1] (play 2x all the boxes)
T =120
(Guitars 1 & 2)
    4/4
E|--------------------------------|
B|--------------------------------|
G|--------------------------------|
D|--------------------------------|
A|--------888855555555------------|
D|00006666------------666666660000|

E|----------------------------------------|
B|----------------------------------------|
G|----------------------------------------| (This run is in 16th triplets.)
D|----------------------------------2-3-5-|
A|----555522222222------2-3-5-2-3-5-------|
D|3333------------3-5-6-------------------|
                  . . . . . . . . . . . .

E|--------------------------------|
B|--------------------------------|
G|--------------------------------|
D|--------666666666-------3-------|
A|----8888--------6-------3-------|
D|9999------------6-------3-------|

E|--------------------------------|
B|--------------------------------|
G|--------------------------------|
D|--------666666666---------------|
A|----8888--------6-------4-------|
D|9999------------6-------6-------|

[Bridge]
 T=160
(Guitar 1)
   4/4
E|------------------------|
B|------------------------|
G|------------------------| (8ths triplets.)
D|------------9p6---------|
A|----------------8p5-----|
D|0-3-6-0-3-6---------7-6-|
    . .   . .

(Guitar 2)
   4/4
E|------------------------|
B|------------------------|
G|------------10p7--------| (8ths triplets.)
D|----------------9p6-----|
A|--------------------8-5-|
D|0-3-6-0-3-6-------------|
    . .   . .

[Riff 2]
(play 2x all the boxes)(these are all 8ths triplets)
 T=160
(Guitars 1 & 2)            
   4/4                    
E|------------------------|------------------------|
B|------------------------|------------------------|
G|------------------------|------------------------|
D|------3-----4-----------|------------------------|
A|----------------5-------|------5-----3-----2/3\2-|
D|0h3h6---7-6---0---7-6-9-|0h3h6---5-4---4-3-2/3\2-|
          . .   .   . . .          . .   . .

E|----------------------|
B|----------------------|
G|----------------------|
D|------0-3-6/9p6-0-----|
A|------------------2~--|
D|0h3h6-----------------|
        . .

[Bridge]
 T=160
(Guitar 10
   4/4
E|--------------------|
B|--------------------|
G|--------------------|
D|9p6-0-12p9----------|
A|-----------11-0-----|
D|--------------0-----|
      .      .

(Guitar 2)
   4/4
E|------------------|
B|------------------|
G|7p4---10p7--------|
D|----6-----9-------|
A|------------0-----|
D|------------0-----|
      .     .

[Riff 3]
(play 2x) 
(these are now normal 16ths)
 T=120
(Guitars 1 & 2)
   4/4
E|--------------------------------|--------------------------------|
B|--------------------------------|--------------------------------|
G|------------------3\2-----------|------------------------2-------|
D|------4-0h1-------3\2---4-0-1-1p|0-----------------------0-2-3-3-|
A|0-0-0-4-0h1-1-1-1-----1-4-0-1-1p|0-0-0-1p0-0-0-0-0h1-4-4---0-1-1-|
D|0-0-0-------1-1-1-----1---------|--0-0-1p0-0-0-0-0h1-4-4---------|
  . . .       . . .     .     .    . . .     . . .       .

E|--------------------------------|------------------------------|
B|--------------------------------|------------------------------|
G|------------------3\2-----------|*-----------------------------|
D|------4-0h1-------3\2-----2-----|0-----------------------------|
A|0-0-0-4-0h1-1-1-1-----2-4-0-0-1p|0-----1p0-0-0-----0-1-4-1-4~--|
D|0-0-0-------1-1-1-----2-4---0-1p|0-----1p0-0-0-0h4-------------|
  . . .       . . .     .     . .            . .

(Guitar 2 plays a pinched harmonic somewhere on the fretboard0 (duh)

[Bridge] 
(triplets 16ths)
 T=120
(Guitars 1 & 2)
   2/4
E|-----------------------|
B|-----------------------|
G|-----------------------|
D|-----------------------|
A|----0-1-3-4------------|
D|0-4---------0----------|
  . . . . . . .

[Riff 4]
(play 2x)
 T=120
(Guitars 1 & 2)
   4/4
E|--------------------------------|----------------------------------|
B|--------------------------------|----------------------------------|
G|--------------------------------|----------------------------------|
D|117-8-8-------------------------|117-8-8-7h8p7-------7-------------|
A|9-5-6-6-------------------------|9-5-6-6-------9-9-----9-9-6\------|
D|--------000011110000444400000000|----------------------------------|
                                                 .       . .
E|----------------------------------|--------------------------------|
B|----------------------------------|--------------------------------|
G|----------------------------------|--------------------------------|
D|117-8-8---------------------------|------------------------*-------|
A|9-5-6-6-----------------4/5-4-1-4-|--------1-2-0-1-----------------|
D|--------00001111000044444/5-4-1-4-|--1-3-4---------4-5-1-3-00000000|
                                .      . . . .   .   .   . .

(the seconde time you play the riff, stop at the)(*)

[Riff 5]
(play 4x)
 T=120
(Guitars 1 & 20
   4/4
E|--------------------------------|---------------------------------|
B|--------------------------------|---------------------------------|
G|--------------------------------|---------------------------------|
D|7/8-x-5---7-------5\4-x---------|---------------------------------|
A|5/6-x-3---5-0-0-0-3\2-x-6\5-0---|4/5\4-1-4--------1-2-0-1---------|
D|7/8-x-5---7-0-0-0-------6\5-0-4-|4/5\4-1-4--0-3-4---------4-5-1-3-|
              . . .           .          .    . .   .   .   .   .

[Bridge]
 T=120
(Guitar 1)
   4/4
E|--------------------------------|---------------/16ths-triplets\----|
B|--------------------------------|-----------------------------------|
G|--------------------------------|-----------------------------------|
D|--------------------------------|----7---4--------------------------|
A|--------8---5\--------------0---|1---5---2-----------0-1-3-4--------|
D|0--/7---------------6\------0---|1---------------0-4---------0------|
                              .    .               . . . . . . .

(Guitar 2) 
(not sure at all about the second bar):
   4/4
E|--------------------------------|---------------/16ths-triplets\----|
B|--------------------------------|-----------------------------------|
G|--------5-----------------------|-----------------------------------|
D|------------7\------------------|----7---4-------------3-5-6--------|
A|0--/5---------------5\------0---|1---5---2-------0-4-7-------0------|
D|----------------------------0---|1----------------------------------|
                              .    .               . . . . . . .

[Riff 1]
E|----------------------------------------|
B|----------------------------------------|
G|----------------------------------------| (This run is in 16th triplets.)
D|----------------------------------2-3-5-|
A|----555522222222------2-3-5-2-3-5-------|
D|3333------------3-5-6-------------------|
                  . . . . . . . . . . . .

E|--------------------------------|
B|--------------------------------|
G|--------------------------------|
D|--------666666666-------3-------|
A|----8888--------6-------3-------|
D|9999------------6-------3-------|

E|--------------------------------|
B|--------------------------------|
G|--------------------------------|
D|--------666666666---------------|
A|----8888--------6-------4-------|
D|9999------------6-------6-------|

(Guitars 1 & 2)
    4/4
E|--------------------------------|
B|--------------------------------|
G|--------------------------------|
D|--------------------------------|
A|--------888855555555------------|
D|00006666------------666666660000|

E|----------------------------------------|
B|----------------------------------------|
G|----------------------------------------| (This run is in 16th triplets.)
D|----------------------------------2-3-5-|
A|----555522222222------2-3-5-2-3-5-------|
D|3333------------3-5-6-------------------|
                  . . . . . . . . . . . .

E|--------------------------------|
B|--------------------------------|
G|--------------------------------|
D|--------666666666-------3-------|
A|----8888--------6-------3-------|
D|9999------------6-------3-------|

E|--------------------------------|
B|--------------------------------|
G|--------------------------------|
D|--------666666666---------------|
A|----8888--------6-------4-------|
D|9999------------6-------6-------|

E|--------------------------------|
B|--------------------------------|
G|--------------------------------|
D|--------666666666---------------|
A|----8888--------6-------4-------|
D|9999------------6-------6-------|

[Riff 6]
(play 2x) 
(it's all in triplets)
 T=120
(Guitars 1 & 2)
   4/4
E|----------------------------------------|
B|----------------------------------------|
G|------------------------*---------------|
D|------------4---------------------------|      
A|0---2---3---2---4---3---5~--0---3---4---|      
D|0---2---3-------4---3-------0---3---4---|
  .   .   .       .   .       .   .   .

E|------------------------------------------------|
B|------------------------------------------------|
G|------------------------------------------------|
D|------------3-----------------------------------|
A|2---2---2---1---1---0---5p4p0h3p2---------------|
D|2---0---0-------1---0-------------5-0-0-2-2-5-5-|
  .   .   .       .   .

[Riff 7]
(play 2x) 
(again, all in triplets)
 T=120
(Guitars 1 & 2)
   4/4
E|--------------------------------------------|
B|--------------------------------------------|
G|--------------------------------------------|
D|--------------------------------------------|
A|------------4\--3-------3-2---------5~------|
D|1-1-3-3-3-3-4\--3-3-3-3-----5-3-2-0---------|
  . . . . . .       . . . . . . . . .

E|------------------------------------------------|
B|------------------------------------------------|
G|------------------------------------------------|
D|------------------------------------------------|
A|------------2\--1-------5-4-0-3-2---------------|
D|0-0-1-1-1-1-2\--1-1-1-1-----------5-0-0-2-2-5-5-|
  . . . . . .       . . . . . . . . . . . . . . .

[Bridge]
 T=120
(Guitars 1 & 2)
   2/4
E|--------------------|
B|--------------------|
G|--------------------|
D|--------------------|
A|3-----------1-------|
D|3-------6---1-------|
          .

[Riff 8]
(not in triplets anymore)
 T=120
(Guitar 1)
   4/4
E|--------------------------------|--------------------------------|
B|--------------------------------|--------------------------------|
G|------------------------------5-|--------------------------------|
D|--------7777----88888\7---------|7-------8-7---8-5---------------|
A|----5555----8888----6\5---5-8---|5-------6-5---6-3-------6p3-----|
D|5555--------------------8-------|----------------------------6-3-|
                          . . .              .     .           . .

(Guitar 2)
   4/4
E|--------------------------------|--------------------------------|
B|--------------------------------|--------------------------------|
G|--------------------------------|--------------------------------|
D|--------------------------------|7-------8-7---8-5---------------|
A|5-------------------------------|5-------6-5---6-3-------6p3-----|
D|5-------------------------------|----------------------------6-3-|
  .                                          .     .           . .

[Riff 8a] 
(play 1x all the boxes)
 T=120
(Guitar 1 & 2)
   4/4
E|--------------------------------|--------------------------------|
B|--------------------------------|--------------------------------|
G|--------------------------------|--------------------------------|
D|--------7777--------88888888----|--------------------------------|
A|----5555----88888888--------8765|6p3333335p3333336-----5-----4---|
D|5555----------------------------|----------------6-----5-----4---|
                                     ......  ......            .

E|--------------------------------|--------------------------------|
B|--------------------------------|--------------------------------|
G|------------------------------5-|--------------------------------|
D|--------7777----88888\7---------|--------------------------------|
A|----5555----8888----6\5---5-8---|555555556p5555556p3333336p3-----|
D|5555--------------------8-------|----------------------------6-3-|
                          . . .    ........  ......  ......    . .

  (2/4)
E|----------------|
B|----------------|
G|----------------|
D|----------------|
A|5\------1-------|
D|5\------1-------|

[Riff 9]
(play once all the boxes)
 T=120
(Guitars 1 & 2)
   4/4
E|--------------------------------------|
B|--------------------------------------|
G|--------------------------------------|
D|--------------------------------------|
A|------------------------------------0-|
D|2222222222--22222222223~------0-2-3---|
  ..........  ..........          . . .

E|--------------------------------|--------------------------------|
B|--------------------------------|--------------------------------|
G|--------------------------------|--------------------------------|
D|--------------------------------|0-------------------------------|
A|22223333777733337p3-------------|0-------4-------4h5p4~--4---1---|
D|--------------------6-0-5-0-3p1-|0-------6---------------4---1---|
  ................  . . .   .                              .   .

(6/4)
E|------------------------------------------------|
B|------------------------------------------------|
G|------------------------------------------------|
D|0-----------------------------------------------|
A|0-------4-------4h5p4~-------8---7~-------------|
D|0-------6---------------------------------------|

4/4
E|----------------------------------------|
B|----------------------------------------|
G|----------------------------------------|
D|----------------------------------------|
A|------------------------7-6-----6\------|
D|101010109999666610101010----109-----6\--|
                             . .

[Riff 2]
(play 2x all the boxes)(these are all 8ths triplets)
 T=160
(Guitars 1 & 2)            
   4/4                    
E|------------------------|------------------------|
B|------------------------|------------------------|
G|------------------------|------------------------|
D|------3-----4-----------|------------------------|
A|----------------5-------|------5-----3-----2/3\2-|
D|0h3h6---7-6---0---7-6-9-|0h3h6---5-4---4-3-2/3\2-|
          . .   .   . . .          . .   . .

E|----------------------|
B|----------------------|
G|----------------------|
D|------0-3-6/9p6-0-----|
A|------------------2~--|
D|0h3h6-----------------|
        . .

[Bridge]
 T=160
(Guitar 10
   4/4
E|--------------------|
B|--------------------|
G|--------------------|
D|9p6-0-12p9----------|
A|-----------11-0-----|
D|--------------0-----|
      .      .

[Bridge]
 T=160
(Guitar 10
   4/4
E|--------------------|
B|--------------------|
G|--------------------|
D|9p6-0-12p9----------|
A|-----------11-0-----|
D|--------------0-----|
      .      .

(Guitar 2)
   4/4
E|------------------|
B|------------------|
G|7p4---10p7--------|
D|----6-----9-------|
A|------------0-----|
D|------------0-----|
      .     .

[Riff 4]
(play 2x)
 T=120
(Guitars 1 & 2)
   4/4
E|--------------------------------|----------------------------------|
B|--------------------------------|----------------------------------|
G|--------------------------------|----------------------------------|
D|117-8-8-------------------------|117-8-8-7h8p7-------7-------------|
A|9-5-6-6-------------------------|9-5-6-6-------9-9-----9-9-6\------|
D|--------000011110000444400000000|----------------------------------|
                                                 .       . .
E|----------------------------------|--------------------------------|
B|----------------------------------|--------------------------------|
G|----------------------------------|--------------------------------|
D|117-8-8---------------------------|------------------------*-------|
A|9-5-6-6-----------------4/5-4-1-4-|--------1-2-0-1-----------------|
D|--------00001111000044444/5-4-1-4-|--1-3-4---------4-5-1-3-00000000|
                                .      . . . .   .   .   . .

(the seconde time you play the riff, stop at the)(*)

[Riff 5]
(play 4x)
 T=120
(Guitars 1 & 20
   4/4
E|--------------------------------|---------------------------------|
B|--------------------------------|---------------------------------|
G|--------------------------------|---------------------------------|
D|7/8-x-5---7-------5\4-x---------|---------------------------------|
A|5/6-x-3---5-0-0-0-3\2-x-6\5-0---|4/5\4-1-4--------1-2-0-1---------|
D|7/8-x-5---7-0-0-0-------6\5-0-4-|4/5\4-1-4--0-3-4---------4-5-1-3-|
              . . .           .          .    . .   .   .   .   .


************************************

| .  Staccato
| p  Pull-off
| /  Slide up
| \  Slide down
| h  Hammer-on
| ~  Vibrato
| *  Natural harmonic
| x  Dead note
| .  palm mute  
| <>  Trill

************************************
Suggest correction
Give kudos to tab author, rate the tab!
1 2 3 4 5
comments
print report bad tab
guest
You may want to rate the tab now too:
select rating
Wanna post a correction for this tab? Suggest correction