Oops, an error
Loading. Please wait.

Skin Coffin bass

version 1
version 1

Whole song

Interactive

37 views 1 this week
no commentswrite comment
1 2 3 4 5
3 more votes to show rating
add to favorites
×
Save as Personal and add changes to this tab that will be seen only by you. Learn more ›
×
You can save this tab as Personal to edit and correct it or add notes. All changes will be seen only by you. Learn more »
launch autoscroll
font size
0
reset
guitar tuner
edit
Autoscroll
slow
fast
+/-
esc
set tempo
stop
Tabbed By: Daniel Corrigan
Email: d_snowboard@hotmail.com

Song: Skin Coffin
Artist Psycroptic
Tuning: Dropped D                                                 

                                                       
G||---------------------------------|-----------------------------|
D||-------------4-5---7---8-7-5-4---|-----------------------------|
A||-6-3-5-6-5-6-----6---6---------6-|-----------------------------|
D||---------------------------------|-8-7-5-7~-5-4-5~-4-1-5p4-0h1-|
                               
G||----------------------------------|---------------------------------|
D||--------------4-5-4-7-5-8-7-5-4---|-------5---8---------------------|
A||-6-3-5-6-5-6--------------------6-|-------------6-5-3-6-5-----------|
D||----------------------------------|-8-7-5---5-------------6-5-0-1~--|

G||---------------------------------|-----------------------------|
D||-------------4-5---7---8-7-5-4---|-----------------------------|
A||-6-3-5-6-5-6-----6---6---------6-|-----------------------------|
D||---------------------------------|-8-7-5-7~-5-4-5~-4-1-5p4-0h1-|

G||----------------------------------|------------------------|
D||--------------4-5-4-7-5-8-7-5-4---|------------------------|
A||-6-3-5-6-5-6--------------------6-|------------------------|
D||----------------------------------|-8-7-5-7~-5-4-5---1-0-1-|

G||-------------------------------------------------------------------||
D||---------------------------------------5-5-5-5-4-4-----------------||
A||---------------------------------6-5-3-------------5-5-6--5-3-5----||
D||-0---------------0---0-0-0-0-0-0--------------------------------6--||

                                        (2x)
G||--------------------------------------------||
D||--------------------------------------------||
A||--------------------------------------------||
D||-5-4-5--5-4-8~-5-4-5-4---5--1--1---2--5--1--|| 

G||--------------------------------------------------------------------||
D||-------4-4------------------------------------------5-5-5-5---------||
A||----------5-5-6-6-5p3-6-6-5-5-----------------6-5-3---------4-4-5-5-||
D||-0---0------------------------0---0-0-0-0-0-0-----------------------||

G||------------------------------------------------------------------------------------------||
D||---------4-4-----------------------------------------------5-5-5-5-4-4--------------------||
A||-------------5-5-6-6-5p3-6-6-5-5---------------------6-5-3-------------5-5---6---5-3-5----||
D||-0-0-0-0--------------------------0---0-0-0---0-0-0------------------------------------6--||

G|-----------------------------------------------||
D||---------------------------------8p7----------||
A||-----------------5h6p5---5h6p5-------6p5------||
D||-0---------------------7-------8----------5-4-||

G||-------------------------------------------------------------------------------------------------||
D||-----------------------------------4h5-----------------------------------------------------------||
A||-------5---4-------7-5-4-------5p4-----5-4-2-5-4-------5---4-------7-5-4-------------------------||
D||-4-4-4---4---4-4-4-------4-4-4-------------------4-4-4---4---4-4-4-------4-5-4-1-4-1-0-1-0-0-1-4-||

G||-------------------------------------------------------||
D||-----3p2-----------------------------------8p7---------||
A||---------3p0-------2-3-5---5h6p5---5h6p5-------6p5-----||
D||-0h1---------0h1p0---------------7-------8---------5-4-||

                                                                                                      (2x)
G||---------------------------------------------------------------------------------------------------------||
D||-----------4-5----------0-------4-5---------------------------------------------------------------------.||
A||-------5-6-----6---5-3~---3-0-1-----1-3-6-3-5--6-5------------1-----------5-5-5-1-1-1-------------------.||
D||-4\(0)---------------------------------------------4\(0)--4-5---5-4-1-5\4-------------4-4-4-1-1-1-0-0-0--||

G||-------------------------------||
D||-------------------------------||
A||-------------------------------||
D||-0~~---------1-4-1~--x-------0-||
                 
                                                               (2x)
G||-------------------------------------------------------------------||
D||-8-----7-------------4-5-4-------8-----7-------------4-5-4--------.||
A||---6-5---6-5-3-6-5-6-------6-5-3---6-5---6-5-3-6-5-6-------6-5-3--.||
D||-------------------------------------------------------------------||

                                 (3x)
G||---------------------------|---------|| 
D||-8-----7-----------4---5p4-|--------.||   
A||---6-5---6-5-3-6-5---5-----|-6-5-3--.||
D||---------------------------|---------||

G||---------------------------|---------|| 
D||-8-----7-----------4---5p4-|---------||   
A||---6-5---6-5-3-6-5---5-----|-6-------||
D||---------------------------|---4-1---||

                                                             (4x)
G||------------------------------------------------------------------||
D||-----------------------------------------------------------------.||
A||-1----------0----------------------------------------------------.||
D||----4---1-------1---0---0---1---0---4---1---5---4---1---0---1-----||

G||-------------------------------------------||
D||-------------7-7------8-8------------------||
A||---8-8-7-7-------6--6-----5-5--6-3-5-6-5-6-||
D||-0---------0-------------------------------||  

G||-------------------------------------------------------------------------------||
D||-4-5-4-7-5-8-7-5-4---------------7-7----8-8------------------------------------||
A||-------------------6---8-8-7-7------6-6-----5-5--------------------------------||
D||---------------------0---------0----------------8-7-5-7-7-5-4-5-5-4-1-4-1-0-1~-||

                                                                                    (2x)
G||------------------------------------------------------------------|-------------------|
D||---------------7---8---4-----------------------7------------------|-----------------7-|
A||-----8-----7-----6---6---5-3h6-------------------5-5~-------0h1h4-|5p4p1------3/5-5---|
D||-0-0---0-0---0-----------------0-0-0-1p0-0-0-0--------0h1h3-------|-----3p1p0---------|
                                                         |_____|____| |____|____|
                                                            3     3      3    3
G||-----------------------------------------------||
D||--------------------------8---7---------------.||
A||----------------6-3-5-6-5---5-----------------.||
D||-0-0-0-0-1p0-0-0----------------0-0-7-0-0-3----||
                              
                                                               (3x)         
G||-------------------------------------------------------------------||
D||---------------7---8---4------------------------7-----------------.||
A||-----8-----7-----6---6---5-3h6--------------------5-5~-------0h1h4.||
D||-0-0---0-0---0------------------0-0-0-1p0-0-0-0---------0h1h3------||
                                                          |_____|____|
                                                             3     3    
G||--------------------------------||
D||---------------7---8---4--------||
A||-----8-----7-----6---6---5-3h6--||
D||-0-0---0-0---0------------------||

G|-----------------------------------------------||
D||---------------------------------8p7----------||
A||-----------------5h6p5---5h6p5-------6p5------||
D||-0---------------------7-------8----------5-4-||

G||-------------------------------------------------------------------------------------------------||
D||-----------------------------------4h5-----------------------------------------------------------||
A||-------5---4-------7-5-4-------5p4-----5-4-2-5-4-------5---4-------7-5-4-------------------------||
D||-4-4-4---4---4-4-4-------4-4-4-------------------4-4-4---4---4-4-4-------4-5-4-1-4-1-0-1-0-0-1-4-||

G||-------------------------------------------------------||
D||-----3p2-----------------------------------8p7---------||
A||---------3p0-------2-3-5---5h6p5---5h6p5-------6p5-----||
D||-0h1---------0h1p0---------------7-------8---------5-4-||

G||-------||
D||-------||
A||-------||
D||-4--1--||
                                                       (2x)
G||------------------------------------|-------------------------------||
D||------------------------------------|-------------------------------||
A||------------------------------------|-------------------------------||
D||-5-4-5~---4-5-1--5-4-1--0--1~--0~---|--5---4-5-1---4--1--0~--4------||
                                         
        (hammer-ons/ pull-offs are optional)
G||-------------------------------|--------------------------------|
D||-------------------------------|--------------------------------|
A||-5p0----------------5p0-0h1----|5p0---------------------1p0-4p2-|
D||-----1p06p0-0h5h6h7---------1p0|----6p0-0h3h5h6-0h1h3h4---------|

                                           (2x)        * After 2nd Time
G||----------------------------------------------------------------|---|
D||-----------------------------4---8-----7-----------------------.|-*-|
A||-5p0-------------------3-5-6---6---6-5---6-5-3-6-5-3---3-------.|-*-|
D||-----0h6p0-0-0-1-3-5-6-------------------------------6---6-5-1~-|-0-|

G||-------------------------------||
D||-------------------------------||
A||-------------------------------||
E||--5---4-5-1---4--1--0~--4------||

G||-------||
D||-------||
A||-------|| (guitar break)
D||-------||

                                           (2x)        * After 2nd Time
G||----------------------------------------------------------------|---|
D||-----------------------------4---8-----7-----------------------.|-*-|
A||-5p0-------------------3-5-6---6---6-5---6-5-3-6-5-3---3-------.|-*-|
D||-----0h6p0-0-0-1-3-5-6-------------------------------6---6-5-1~-|-0-|

G||-------------------------------||
D||-------------------------------||
A||-------------------------------||
E||--5---4-5-1---4--1--0~--4------||
                                          
G||---------------------------------|-----------------------------|
D||-------------4-5---7---8-7-5-4---|-----------------------------|
A||-6-3-5-6-5-6-----6---6---------6-|-----------------------------|
D||---------------------------------|-8-7-5-7~-5-4-5~-4-1-5p4-0h1-|
                               
G||----------------------------------|---------------------------------|
D||--------------4-5-4-7-5-8-7-5-4---|-------5---8---------------------|
A||-6-3-5-6-5-6--------------------6-|-------------6-5-3-6-5-----------|
D||----------------------------------|-8-7-5---5-------------6-5-0-1~--|

G||---------------------------------|-----------------------------|
D||-------------4-5---7---8-7-5-4---|-----------------------------|
A||-6-3-5-6-5-6-----6---6---------6-|-----------------------------|
D||---------------------------------|-8-7-5-7~-5-4-5~-4-1-5p4-0h1-|

G||----------------------------------|------------------------|
D||--------------4-5-4-7-5-8-7-5-4---|------------------------|
A||-6-3-5-6-5-6--------------------6-|------------------------|
D||----------------------------------|-8-7-5-7~-5-4-5---1-0-1-|


***********************
|h       Hammer-on
|p       Pull-off
|~       Vibrato
|\       Slide down
| |___|  Triplet
    3

            
            
Suggest correction
Creating personal tab
Creating personal tab
You can edit any tab online and save it as your Personal.

You can edit, replace or remove any tab part or add personal notes – all changes will be seen only by you.

Personal tabs can be accessed anytime from any device, even offline.
Learn more »
Give kudos to tab author, rate the tab!
1 2 3 4 5
comments
print report bad tab
guest
You may want to rate the tab now too:
select rating
Wanna post a correction for this tab? Suggest correction