Oops, an error
Loading. Please wait.

Fight The Power bass

3,253 views 3 this week
no commentswrite comment
1 2 3 4 5
2 more votes to show rating
add to favorites
×
Save as Personal and add changes to this tab that will be seen only by you. Learn more ›
×
You can save this tab as Personal to edit and correct it or add notes. All changes will be seen only by you. Learn more »
launch autoscroll
font size
0
reset
guitar tuner
edit
Autoscroll
slow
fast
+/-
esc
set tempo
stop
-------------------------------------------------------------------------------
Public Enemy – Fight The Power
-------------------------------------------------------------------------------
Tuning: DADGBE

Okay, this song will be done in sections. I have included the guitar bit,
 but the guitar in this song is the same throughout, so for the sake of
 argument this is a bass tab

Intro on Bass. Play twice.

G|------------3--------3-4-5---|-------------|
D|-----3-4-5----5-3--5--------o|-------------|
A|-3-6------------------------o|-3--3-3------|
D|-----------------------------|-------------|

Guitar lead: play throughout song. Listen to song for timing. (D7#9) x5456

e|---------------------------------------------------------------------------|
B|-6-6--x--6-6--x--7-7-(x)---------------------------------------------------|
G|-5-5--x--5-5--x--6-6-(x)---------------------------------------------------|
D|---------------------------------------------------------------------------|
A|---------------------------------------------------------------------------|
D|---------------------------------------------------------------------------|

Bass line during intro
G|-----------------|----------------|----------------|-----------------|
D|o----------------|----------------|----------------|----------------o|
A|o-5-5---5-5------|-5-5---5-5------|-5-5---5-5------|-5-5---5-5------o|
D|-----7-------0-0-|------------0-0-|----7-------0-0-|------------0-0--|

Bass line is this during verses
G|-----------------|
D|-----------------|
A|-5-5---5-5-------|
D|-------------0-0-|

Chorus Bass line is
G|-------------------|
D|-------------------|
A|-5-5--5h6---5-5----|
E|-----------------8-|

            
            
Suggest correction
Creating personal tab
Creating personal tab
You can edit any tab online and save it as your Personal.

You can edit, replace or remove any tab part or add personal notes – all changes will be seen only by you.

Personal tabs can be accessed anytime from any device, even offline.
Learn more »
Give kudos to tab author, rate the tab!
1 2 3 4 5
comments
print report bad tab
guest
You may want to rate the tab now too:
select rating
Wanna post a correction for this tab? Suggest correction