Oops, an error
Loading. Please wait.

Poptones bass

8,124 views 6 this week
2 commentsread comments
1 2 3 4 5
x 6
add to favorites
×
Save as Personal and add changes to this tab that will be seen only by you. Learn more ›
×
You can save this tab as Personal to edit and correct it or add notes. All changes will be seen only by you. Learn more »
launch autoscroll
font size
0
reset
guitar tuner
edit
Autoscroll
slow
fast
+/-
esc
set tempo
stop
----------------------------------------------------------------------------
			     POPTONES - Public Image Ltd.
----------------------------------------------------------------------------

Tabbed By: nizhinsky

Tuning: standard

G|---------------9-9-9-9---------------------------------------------------|
D|-------7-7-7-7-----------------------------------------------------------|
A|-----------------------7-7-7-7-------------------------------------------|
E|-5-5-5-------------------------0-----------------------------------------|

do this four times (except right at the beginning) then...

G|-------------------------------------------------------------------------|
D|-------9-9-9-9-10-10-10-9-9-8-8-7-7--------------------------------------|
A|-------------------------------------------------------------------------|
E|-7-7-7------------------------------0------------------------------------|

G|-------------------------------------------------------------------------|
D|-------9-9-9-9-10---9---8---7--------------------------------------------|
A|-------------------------------------------------------------------------|
E|-7-7-7------------8---7---6---5-0----------------------------------------|

Now repeat the whole thing over and over. Classic Wobble bassline!

============================================================================
Suggest correction
Creating personal tab
Creating personal tab
You can edit any tab online and save it as your Personal.

You can edit, replace or remove any tab part or add personal notes – all changes will be seen only by you.

Personal tabs can be accessed anytime from any device, even offline.
Learn more »
comments
print report bad tab
2 comments total.
0 reply
Twolliebollie 115 Apr 04, 2017 03:16 AM

Awesome! Thanks a lot

0 reply
protitht 11 May 25, 2017 11:12 AM

for the third part this is what I play because it sounds better:

G|----------------------------------------------------------------------|
D|-------9-9-9-9-10---10---9---8---7------------------------------------|
A|----------------------------------------------------------------------|
E|-7-7-7------------9----8---7---6---5-5-5------------------------------|

let me know what you think

guest
Wanna post a correction for this tab? Suggest correction