Oops, an error
Loading. Please wait.

Away From Me Tab

version 2
version 2

Whole song

Interactive

16,979 views 24 this week
15 commentsread comments
1 2 3 4 5
accurate
x 20
add to favorites
launch autoscroll
font size
0
reset
how to read this tab
guitar tuner
Autoscroll
slow
fast
+/-
esc
set tempo
stop
Help us to improve Ultimate-Guitar.com Take our survey!
×
Author
this is the first single off of puddle of mudd's new album, "life on display."
make sure u pick up this awesome CD. 

tunning: drop-D 1/2 step down(Db Ab Db Gb Bb Eb)

intro clean
---------------------------------------------------
-0-0-0-0-0-0-0-0-0-0-0-0-0-0-0-0-0-0-0-0-0-0-0-0---
-4-4-4-4-4-4-4-4-7-7-7-7-5-5-5-5-4-4-4-4-4-4-4-4---
---------------------------------------------------
---------------------------------------------------
---------------------------------------------------

---------------------------------------------------
-6-6-6-6-5-5-5-5-4-4-4-4-4-4-4-4-7-7-7-7-5-5-5-5---
-4-4-4-4-4-4-4-4-4-4-4-4-4-4-4-4-4-4-4-4-4-4-4-4---
---------------------------------------------------
---------------------------------------------------
---------------------------------------------------
                            distortion in
---------------------------------------------------
-0-0-0-0-0-0-0-0-0-0-0-0-0-0-----------------------
-4-4-4-4-4-4-4-4-4-4-4-4-4-4-4h5-------------------
---------------------------------------------------
---------------------------------------------------
---------------------------------------------------

chorus distrotion
---------------------------------------------------
---------------------------------------------------
---------------------------------------------------
-9--9--9-9---3--3-3-3--0--0--0--0------------------
-9--9--9-9---3--3-3-3--0--0--0--0------------------
-9--9--9-9---3--3-3-3--0--0--0--0------------------

verse clean
---3---3-------3---3--------3---5---3--------------
-4---4-------4---4--------4---4---4---4------------
---------------------------------------------------
---------------------------------------------------
---------------------------------------------------
---------------------------------------------------

chorus
verse
chorus

bridge distortion
---------------------------------------------------
---------------------------------------------------
-4--4---7--7---------------------------------------
-4--4---7--7---7-7-7---2--2--2---------------------    4X 
-2--2---5--5---7-7-7---2--2--2---------------------
---------------7-7-7---2--2--2---------------------

---------------------------------------------------
---------------------------------------------------
---------------------------------------------------
--0---0---0---0---0--0--2---2--2---5--5----7--7----
--0---0---0---0---0--0--2---2--2---5--5----7--7----
--0---0---0---0---0--0--2---2--2---5--5----7--7----

repeat chorus
Suggest correction
comments
print report bad tab
15 comments total. Showing first comments.
0 reply
c_ventura555 101 wrote on November 18 2003, 12:00 am

sorry i messed up the intro. the second line should be:
------------------------------------------------------
-6-6-6-6-5-5-5-5-0-0-0-0-0-0-0-0-0-0-0-0-0-0-0-0------
-4-4-4-4-4-4-4-4-4-4-4-4-4-4-4-4-7-7-7-7-5-5-5-5------
------------------------------------------------------
------------------------------------------------------
------------------------------------------------------

0 reply
plrdsmthdude27 20 wrote on November 27 2003, 12:00 am

Really good. i give it a five.

0 reply
c_ventura555 101 wrote on November 29 2003, 12:00 am

i messed up again. the verse should b
---------------------------------------------------
--3--3-----3--3----3---5---3-----------------------
-4--4----4---4---4---4---4-------------------------
---------------------------------------------------
---------------------------------------------------
---------------------------------------------------

guest
You may want to rate the tab now too:
select rating
Wanna post a correction for this tab? Suggest correction