Oops, an error
Loading. Please wait.

Blood On The Table Tab

473 views 3 this week
2 commentsread comments
1 2 3 4 5
2 more votes to show rating
add to favorites
launch autoscroll
font size
0
reset
how to read this tab
guitar tuner
Autoscroll
slow
fast
+/-
esc
set tempo
stop
Help us to improve Ultimate-Guitar.com Take our survey!
×
Author
Alright, this is my first tab and so I thought I'd make a PoM song. Real easy and the 
tuning is a half step down (Eb).


Main Riff
|--------------------|
|--------------------|
|9----5--------------|
|9(x8)5(x8)7----5----|
|7----3----7(x8)5(x8)|
|----------5----3----|


Lead Riff
|---------------------------------------------------------|
|---------------------------------------------------------|
|---------------------------------------------------------|
|-----------7------------10------------7------------------|
|10-10-7-10---10-10-7-10----10-10-7-10---10-10-7-10(b)-7--|
|---------------------------------------------------------|


Verse 1 (Main Riff)


Pre Chorus
|------------|
|------------|
|------------|
|7-----9-----|
|7(x16)9(x16)|
|5-----7-----|


Chorus
|--------------------|
|--------------------|
|----------5---------| (x2)
|2----5----5(x4)7----|
|2(x4)5(x4)3----7(x4)|
|0----3---------5----|


Main Riff

Lead Riff

Verse 2 (Main Riff)

Pre Chorus

Chorus

Lead Riff 2
|---------|
|---------|
|---------|  (x8)
|---------|
|7-5-0----|
|------3-0|


Bridge
|-------------------|       |-------------------|
|-------------------|       |-------------------|
|-------------7-----|  (x2) |-------7-----9-----|
|9------7-----7(x8)-|       |9------5(x8)-9(x8)-|
|9(x16)-7(x8)-5-----|       |9(x16)-5-----7-----|
|7------5-----------|       |7------------------|


Chorus

Lead Riff 2


AND THAT'S THE WHOLE SONG. Comment, corrections, etc. POM FOR LIFE!
Suggest correction
Give kudos to tab author, rate the tab!
1 2 3 4 5
comments
print report bad tab
2 comments total.
-1 reply
KrisBcream 175 Feb 27, 2013 12:15 PM

I made a couple mistakes. The chorus should be:
Chorus
|-------------------------|
|-------------------------|
|----------5--------------| (x2)
|2----5----5(x4)7----9----|
|2(x4)5(x4)3----7(x2)9(2x)|
|0----3---------5----7----|

and the Lead Riff 2 should be:
Lead Riff 2
|-----------|
|-----------|
|-----------| (x8)
|-----------|
|7-7-5-0----|
|--------3-0|

0 reply
KrisBcreamSUCKS 10 Nov 29, 2013 08:01 PM

WOW, THIS TAB IS LIKE IF I WERE SUCK A PENIS BUT THE PENIS WAS A GUITAR AND I JUST SUCKED AT GUITAR HAHAHHAHA

guest
You may want to rate the tab now too:
select rating
Wanna post a correction for this tab? Suggest correction