Oops, an error
Loading. Please wait.

Blurry Tab

version 1
version 1
258,949 views 228 this week
61 commentsread comments
1 2 3 4 5
x 67
add to favorites
launch autoscroll
font size
0
reset
how to read this tab
guitar tuner
Autoscroll
slow
fast
+/-
esc
set tempo
stop
Help us to improve Ultimate-Guitar.com Take our survey!
×
Author
This is the correct tabs for Blurry. This came right from the January 
issue of Guitar World. Here it is.

All guitars tuned down one half step(low to high:Eb,Ab,Db,Bb,eb)

[Intro:] Harmonics

Gtr 1:
eb:----------------------------------------|
Bb:----------------------------------------|
Gb:---5---4---5--4---5----5---4---5--4---5-|
Db:--4-5---4---5---4--5--4-5---4---5---4--5|
Ab:-3----3--3---3---3---5----5--5---5---5--|
Eb:----------------------------------------|
                                          *  *
eb:------------------5--------------------5----|
Bb:-------------------5----------------------5-|
Gb:---5---4---5--4--------5---4---5--4---(5)---|
Db:--4-5---5---4---5-----4-4---5---4---5----(0)|
Ab:-7----7--7---7---7---7----7--7---7---7------|
Eb:--------------------------------------------|

*=Substitute notes in parentheses for notes above for the  verse harmonics. 
E-mail me at gothgodofwar@yahoo.com if you don't understand.

Gtr 1: plays this in the beginning of the verse.

(play w/delay,phaser,and chorus pedal)

(If you listen to the song, you will here the parts at which these single 
notes are played.) 

eb:------------------17---15-------17---19----17---17---15|
Bb:-------------------------------------------------------|
Gb:-------------------------------------------------------|
Db:-------------------------------------------------------|
Ab:-------------------------------------------------------|
Eb:-------------------------------------------------------|

Gtr 2: intro plays

eb:-3-3-3-3-3-3-3-3-3-3-3-3-3-0-0-0-0-0-0-0-0-0-0-0-0-0-3-3-3-3-0-0-0-0-0\
Bb:-3-3-3-3-3-3-3-3-3-3-3-3-3-3-3-3-3-3-3-3-3-3-3-3-3-3-3-3-3-3-0-0-0-0-0 \ 
Gb:-0-0-0-0-0-0-0-0-0-0-0-0-0-2-2-2-2-2-2-2-2-2-2-2-2-2-0-0-0-0-0-0-0-0-0  \x2
Db:-2-2-2-2-2-2-2-2-2-2-2-2-2-0-0-0-0-0-0-0-0-0-0-0-0-0-2-2-2-2-2-2-2-2-2  /
Ab:-3-3-3-3-3-3-3-3-3-3-3-3-3-0-0-0-0-0-0-0-0-0-0-0-0-0-2-2-2-2-0-0-0-0-0 /
Eb:----------------------------------------------------0-0-0-0-0-0-0-0-0/

[Verse:]

Gtr 1. plays Harmonics 

Gtr 2. plays this.
eb:3333333333-5555555555-7777777777-7777777777\
Bb:3333333333-5555555555-7777777777-7777777777 \
Gb:5555555555-7777777777-9999999999-9999999999  \x4
Db:5555555555-7777777777-9999999999-9999999999  /
Ab:3333333333-5555555555-7777777777-7777777777 /
Eb:-------------------------------------------/

Chorus and piece before chorus.

(At"There's oceans inbetween us but that's not very far" the Gtr 1. plays this. 
This also is the chorus for Gtr 1. Listen to the song to figure out the rythem.)

Gtr 2. plays the verse for the chorus

Gtr 1. plays 

eb:---------------------------------------------------------|
Bb:---------------------------------------------------------|
Gb:77/-14-13-14-16-19-19-19-19/21-21-21-21-21-21-23-23-23-24|
Db:xx---x--x--x--x--x--x--x--x-----x--x--x--x--x--x--x--x--x|
Ab:55/-12-11-12-11-17-17-17-17/19-19-19-19-19-19-21-21-21-22|
Eb:---------------------------------------------------------|

Interlude:

Gtr 1. plays

eb:---------------------------------------------------------|
Bb:---------------------------------------------------------|
Gb:11/12-12-11/12\11-12-12\11---11/12-12-12---11/14-14-14-16|
Db:-x-----x--x--------x--x-------x-----x--x----x-----x--x--x|
Ab:-9/10-10--9/10\-9-10-10--9----9/10-10-10----9-12-12-12-14|
Eb:---------0---------------0-0-0----------0-0--------------|

Gtr 2. plays

eb:-------------------------------------7-7-7-7-7-7|
Bb:-7-8-8-x-x--7-8-8-7-x-x--7-8-8-x-x-x-7-7-7-7-7-7|
Gb:-7-7-7-x-x--7-7-7-7-x-x--7-7-7-x-x-x-7-7-7-7-7-7|
Db:-7-9-9-x-x--7-9-9-7-x-x--7-9-9-x-x-x-9-9-9-9-9-9|
Ab:-7-7-7-x-x--7-7-7-7-x-x--7-7-7-x-x-x-7-7-7-7-7-7|
Eb:------------------------------------------------|

[Bridge:]

Through all this, Gtr 2. plays verse chords.

Gtr 1. plays all this

(Hold Chord)
eb:---\
Bb:--- \ 
Gb:-20  \x2
Db:--x  /
Ab:-17 /
Eb:---/


Then this

eb:----------------------------------\
Bb:---------------------------------- \
Gb:-11/12-12---11/12\11-12-12-12-11--  \x2(add an extra
Db:--x-----x----x--------x--x--x--x--  /   open note on 
Ab:--9-10-10----9/10\9--10-10-10--9-- /    Ab on the second 
Eb:----------0----------------------0/      time)

Then

eb:--------Hold()then-|
Bb:--------slide------|
Gb:-16/19--(19)/7----7|
Db:--x-----(-x)------x|
Ab:-14/17--(17)/5-5--5|
Eb:-------------------|

Then

eb:-------------------------------------------------------|
Bb:-------------------------------------------------------|
Gb:-11/12-12-----11/12\11-12-12\11-11\12/13-13--9--11--9\-|
Db:--x-----x------x--------x--x-----x--------x--x---x--x--|
Ab:--9/10-10------9/10\-9-10-10\-9--9\10/11-11--7---9--7\0|
Eb:----------0-------------------------------------------0|

Then this to go into the solo part

Db:-12h14----

Then little solo thing
(w/dist.,phaser,chorus,and delay)

eb:-----------------------------------|
Bb:-----------------------------------|
Gb:-12--------------------------------|
Db:-----14-14-14-12-14-14-14-14--12-14|
Ab:-----------------------------------|
Eb:-----------------------------------|

Then this

eb:---------------------------|
Bb:---------------------------|
Gb:-12------------------------|
Db:-----14-12-14-14--14--12-14|
Ab:---------------------------|
Eb:---------------------------|

Then this

eb:----------------------------------|
Bb:----------------------------------|
Gb:-12-------------------------------|
Db:-----14-14-14-12--14-14--14--14-14|
Ab:----------------------------------|
Eb:----------------------------------|

Then

eb:----------------------------------------|
Bb:----------------------------------------|
Gb:----------------------------------------|
Db:-12-12-12-14-14-14-12-14-14--12-12-12-14|
Ab:----------------------------------------|
Eb:----------------------------------------|

Then

eb:------------------------------------|
Bb:------------------------------------|
Gb:-12-12-12---------------------------|
Db:----------14--12--14-14-14-14--12-14|
Ab:------------------------------------|
Eb:------------------------------------|

Then 

eb:-------------------------------------------|
Bb:-------------------------------------------|
Gb:-12--12------------------------------------|
Db:--------14-14-14-12-12-14-14-14-14-14-12-14|
Ab:-------------------------------------------|
Eb:-------------------------------------------|

Then

eb:--------------------------------|
Bb:--------------------------------|
Gb:-12-----------------------------|
Db:----14-14-14-12-12-14-14--14--14|
Ab:--------------------------------|
Eb:--------------------------------|

Then

             Hold ()
eb:-------------------|
Bb:-------------------|
Gb:-------------------|
Db:-12--14-14-14-(12)-|
Ab:-------------------|
Eb:-------------------|

The harmonics outro:

Gtr 1.
(these harmonics are different from the intro and verse harmonics)

eb:------------------5----------------------|
Bb:-------------------5---------------------|
Gb:---5---4---5--5--------5---4---5--4---5--|
Db:--4-4---5---4---5-----4-5---4---5---4--5-|
Ab:-7----7--7---7---7---3----3--3---3---3---|
Eb:-----------------------------------------|

Then

eb:--------------------|
Bb:--------------------|
Gb:---5---4---5--4---5-|
Db:--4-5---4---5---4--5|
Ab:-5----5--5---5---5--|
Eb:--------------------|

Then this

eb:------------------------5-----------------5---------------|
Bb:-------------------------5-------------------5------------|
Gb:---5----------5------------------5-----4--------5------2--|
Db:--4-5-5-5-5----------5-----5--4-----5--------------4---2--|
Ab:-7----------------7------------------------------------2--|
Eb:-------------------------------------------------------0--|

Gtr 2. plays this on the very last part of the outro harmonics that are above 
 
eb:-7---0----000000000------0--------0----------------|
Bb:-7---0----333333333------3--------3----------------|
Gb:-9--------000000000------0--------0----------------|
Db:-9--------222222222------2--------2----------------|
Ab:-7--------222222222------2--------2----------------|
Eb:----------000000000------0--------0----------------|



************************************

| x    Dead note
| (n)  Ghost note
| h    Hammer-on
| /    Slide up
| \    Slide down

************************************
Suggest correction
comments
print report bad tab
61 comments total. Showing first comments. show 1 bad comment
+2 reply
gothgodofwar 60 Feb 03, 2002 12:00 AM

Harmonics are where u lightly touch the chord,and pick that chord

+1 reply
Rage 382 Feb 03, 2002 12:00 AM

He's right. This is it!!!

guest
You may want to rate the tab now too:
select rating
Wanna post a correction for this tab? Suggest correction