Oops, an error
Loading. Please wait.

Blurry Tab

version 4
version 4
3,334 views 3 this week
10 commentsread comments
1 2 3 4 5
accurate
x 4
add to favorites
launch autoscroll
font size
0
reset
how to read this tab
guitar tuner
Autoscroll
slow
fast
+/-
esc
set tempo
stop
Help us to improve Ultimate-Guitar.com Take our survey!
×
Tune guitar a half-step down...
Tuning Low to High: (Eb, Ab, Db, Gb, Bb, Eb)

Explanation of Tab:

Natural Harmonic... < >
Palm Mute.......... pm
Vibrato............ ~
Slide up........... /
Slide down......... \
ghost note......... ( ) slide to but don't pick the note shown in
                        parenthesis
                                                                           
Intro:  

   Rhy Fig 1
eb|-----------------------------------------------------|
Bb|-----------------------------------------------------|
Gb|-------<5>----------------<5>----------------<5>-----|
Db|----------<5>----------------<5>----------------<5>--|
Ab|-3--3----------3--3--3--3---------3--3--3--3---------|
Eb|-----------------------------------------------------|
                        pm                 pm



eb|--------------------------------------------------------------|
Bb|-----------------<5>--------------------<5>-------------------|
Gb|------<5>------------<5>------<5>------------<5>------<5>-----|
Db|-0--0-----<5>--0----------<5>-----<5>--0----------<5>-----<5>-|
Ab|--------------------------------------------------------------|
Eb|--------------------------------------------------------------|
                  pm                      pm



eb|----------------------------------------------------<5>-----|
Bb|-----------------<5>--------------------<5>-------------<5>-|
Gb|------<5>------------<5>-----<5>------------<5>-------------|
Db|----------<5>------------<5>-----<5>------------<5>---------|
Ab|-7--7----------7----------------------7---------------------|
Eb|------------------------------------------------------------|
                  pm                     pm


                                                  End Rhy Fig 1
eb|----------------------------------------------------<5>-----|
Bb|-----------------<5>--------------------<5>-------------<5>-|
Gb|------<5>------------<5>-----<5>------------<5>-------------|
Db|----------<5>------------<5>-----<5>------------<5>---------|
Ab|-7--7----------7----------------------7---------------------|
Eb|------------------------------------------------------------|
                  pm                     pm



   Rhy Fig 2
eb|-----------------------------------|
Bb|-----------------------------------|
Gb|-----------------------------------|
Db|--------5--4-------4h5-4h5-4h5-----|
Ab|-2/(3)----------3------------------|
Eb|-----------------------------------|



eb|-----------------------------------|
Bb|-----------------------------------|
Gb|-----------------------------------|
Db|--------5--4-------4h5-4h5-4h5-----|
Ab|-3/(5)----------5------------------|
Eb|-----------------------------------|



eb|-----------------------------------|
Bb|-----------------------------------|
Gb|-----------------------------------|
Db|--------5--4-------4h5-4h5-4h5-----|
Ab|-5/(7)----------7------------------|
Eb|-----------------------------------|


                         End Rhy Fig 2
eb|-----------------------------------|
Bb|-----------------------------------|
Gb|---------------------------4~~-----|
Db|--------5--4-------4h5-4h5---------|
Ab|-5/(7)----------7------------------|
Eb|-----------------------------------|



Pre-Chorus:  Distortion

eb|-----------------------------------------------------
Bb|-----------------------------------------------------
Gb|-----------------------------------------------------
Db|-6-/(7)\(6)-6-/-(9)--9--9--9-/(12)--12--12--12-/(14)-
Ab|-----------------------------------------------------
Eb|-----------------------------------------------------


----------------------------------------|
----------------------------------------|
----------------------------------------|
----------------------------------------|
-14--14--14--14--14-/(16)--16--16--17~~-|
----------------------------------------|


Chorus: (Can ya take me all the way hey...)

(strumming pattern not shown)
eb|----------|-------------|-------------|
Bb|----------|-------------|-------------|
Gb|-5--------|-5/7---------|-------------|
Db|-5--------|-5/7---------|-0h2---------|
Ab|-3--------|-3/5---------|-0h2---------|
Eb|-3--------|-3/5---------|-0-0---------|


Bridge: 

Riff A
eb|---------------------------------------|
Bb|---------------------------------------|
Gb|-11-/-(12)--12---12---12---11---11-----|
Db|-x----------x----x----x----x----x------|
Ab|-9--/-(10)--10---10---10---9----9h10p9-|
Eb|-0-------------------------0-----------|


eb|----------------------------------------|
Bb|----------------------------------------|
Gb|-11-/-(12)--12---12---12---11---11---11-|
Db|-x----------x----x----x----x----x----x--|
Ab|-9--/-(10)--10---10---10---9----9----9--|
Eb|-0-------------------------0------------|



Riff B                     {        (x2)
eb|------------------------|-----------------------------
Bb|------------------------|-----------------------------
Gb|------------------------|-----------------------------
Db|-9~~---------9-\-7~~----|---4--4h5--5--5--5--4--4h5p4-
Ab|------------------------|-----------------------------
Eb|------------------------|-----------------------------


                 } 
-----------------|
-----------------|
-----------------|
-4h5--5--5--5--4-|
-----------------|
-----------------|


*** Song Structure ***

Rhy Fig 1   x 4
Rhy Fig 2   x 1.5  (only play the first 2 bars the second time)
Pre-Chorus
Chorus      x 2

Rhy Fig 1   x 2
Rhy Fig 2   x 1.5
Pre-Chorus
Chorus      x 2

Bridge
Riff A      x 4
Riff B      x 2
Chorus      x 2

Rhy Fig 1   x 2
Suggest correction
What's this?
You can suggest a correction to this tab. Community and Mods will review your correction and vote to approve or reject it.
comments
print report bad tab
10 comments total. Showing first comments.
0 reply
Mohsen-14 11 wrote on March 12 2002, 12:00 am

this is without a doubt one of the worst tabs i have ever seen do everone a favour and put down ur guitar

0 reply
quiksilvermist 24 wrote on March 12 2002, 12:00 am

yes..this is pretty wrong.. lol but thats fuct up

0 reply
dexter884 183 wrote on March 12 2002, 12:00 am

pretty good job on the intro. sounds good if u play it right, more like the cd than some of the other tabs

guest
You may want to rate the tab now too:
select rating
Please do not post tabs as comments. Select "correction" instead!