Oops, an error
Loading. Please wait.

Blurry Tab

version 6
version 6
23,548 views 30 this week
3 commentsread comments
1 2 3 4 5
x 7
add to favorites
launch autoscroll
font size
0
reset
how to read this tab
guitar tuner
Autoscroll
slow
fast
+/-
esc
set tempo
stop
Help us to improve Ultimate-Guitar.com Take our survey!
×
Author
#---------------------------------YOU BEST NOTE-------------------------------#
#This file is the author's own work and represents their interpretation of the#
#song. You may only use this file for private study, scholarship, or research.#
#-----------------------------------------------------------------------------#
#---------------------------------YOU BEST NOTE-------------------------------#
#This file is the author's own work and represents their interpretation of the#
#song. You may only use this file for private study, scholarship, or research.#
#-----------------------------------------------------------------------------#


Blurry

Puddle of Mudd

^ - Natural Harmonic
/ - slide (or strum in some cases)


Intro/Verse : Guitar 1 (Acoustic)
    
Guitar 2 Plays Chords 2nd time   
      
    Cadd9			      Dsus2
Eb----------------------------------------------------------------------|
Bb----------------------------------------------------------------------|
Gb------5^----4^----5^-----4^----5^-------5^----4^-----5^-----4^----5^--|
Db----4^--5^----4^----5^-----4^----5^---4^--5^----4^-----5^-----4^----5^|
Ab--3-------3-----3-----3------3------5-------5-----5------5------5-----|
Eb----------------------------------------------------------------------|
    Em7				      Em				
Eb------------------------------5^----------------------------------5^--|
Bb--------------------------------5^--------------------------4^------5^|
Gb------5^----4^----5^----4^--------------5^----4^-----5^-------5^------|
Db----4^--5^----5^----4^----5^----------4^--4^----5^-----4^-------7-----|
Ab--7-------7-----7-----7-----7-------7-------7-----7------7------------|
Eb----------------------------------------------------------------------|

Pre-Chorus thing (1:07) 

Guitar 2 w/ dist : (/ - strum)
Eb-----------------------------------------------------------|
Bb-----------------------------------------------------------|
Gb-7/--14--13--13--14--/-13--13---19--/-/-/-/--21-/-/-/-/-/--|
Db-----------------------------------------------------------|
Ab-5/--12--11--11--12--/-11--11---17--/-/-/-/--19-/-/-/-/-/--|
Eb-----------------------------------------------------------|
			  chorus :
Eb-------------------------------------|
Bb-------------------------------------|
Gb--23-/-/-/-/-/--24-/-/--24vvvvvvvvv--|
Db-------------------------------------|
Ab--21-/-/-/-/-/--22-/-/--22vvvvvvvvv--|
Eb-------------------------------------|

Chorus :

        C5(sus2)		  D5
Can you take it all away, Can you take it all away.
	 E5			    E5 open (x79900)
Well you shoved it in my face, This pain you gave to me. 
    Bb  C5   		  	  D5
Can you take it all away, Can you take it all away.
 	 E5		    (2nd time)            E 9\7
Well you shoved it in my face, This pain you gave to me. 


Interlude : (2:51)
   3x
Eb|----------------------------------------|-------------------|
Bb|----------------------------------------|-------------------|
Gb|---11-/12-12---11/12\11v-12-/-12\11-----|--11/12-/-12b------|
Db|----------------------------------------|-------------------|
Ab|---9--/10-10---9-/10\9vv-10-/-10\9------|--9-/10-/-10b------|
Eb|-------------0-------------------0-0-0--|--------------0-0--|

		       Bridge :
Eb--------------------|-----------------------------------------|
Bb--------------------|-----------------------------------------|
Gb--11/14-/-/-/-16-/--|--16-------------16\\14---14-----14\\7---|
Db--------------------|-----------------------------------------|
Ab--9-/12-/-/-/-14-/--|--14-------------14\\12---12-----12\\5---|
Eb--------------------|-----------------------------------------|

Eb----------------------------|
Bb----------------------------|
Gb--7---11--11-/12------------|
Db----------------------------|
Ab--5---9---9--/10-etc...-----|
Eb----------------------------|

Solo : (3:52) w/ phase shifter, chorus, delay, and dist.
Eb---------------------------------------------------------------|
Bb---------------------------------------------------------------|
Gb--------12-----------------------------------12vv--------------|
Db--12h14-----14-14-14--12vv-14-14-14-14-12-14------14-12-14-14--|
Ab---------------------------------------------------------------|
Eb---------------------------------------------------------------|

Eb---------------------------------------------------------|
Bb---------------------------------------------------------|
Gb--------12-----------------------------------------------|
Db--12-14----14-14-14-12vv-14-14-14-14-14-12-12-12-12-12v--|
Ab---------------------------------------------------------|
Eb---------------------------------------------------------|
			Guitar 2 :
Eb---------------------------------------------------------------|
Bb---------------------------------------------------------------|
Gb--------12-----------------------------------12vv--------------|
Db--12h14-----14-14-14--12vv-14-14-12-12-14-14------14-12-14-14--|
Ab---------------------------------------------------------------|
Eb---------------------------------------------------------------|
			Guitar 3 :
Eb---------------------------------------------------------------|
Bb---------------------------------------------------------------|
Gb----------------------14vv-14-14-14-14-14-14--13vvvvvvvvvvvvvv-|
Db---------------------------------------------------------------|
Ab---------------------------------------------------------------|
Eb---------------------------------------------------------------|

Outro is basically the intro with some extra harmonics thrown in.

Suggest correction
comments
print report bad tab
3 comments total.
0 reply
metallicax6 83 Jul 15, 2007 01:27 AM

Best Blurry tab so far. Thank you.

0 reply
KennethSmith 850 Mar 11, 2015 10:19 PM

In the second system I moved the second to last set of harmonics down one string:

Eb------------------------------5^----------------------------------5^--|
Bb--------------------------------5^----------------------------------5^|
Gb------5^----4^----5^----4^--------------5^----4^-----5^-----4^--------|
Db----4^--5^----5^----4^----5^----------4^--4^----5^-----4^-----5^------|
Ab--7-------7-----7-----7-----7-------7-------7-----7------7------7-----|
Eb----------------------------------------------------------------------|

0 reply
sprunkcovers 237 Apr 21, 2015 09:15 PM

best blurry tab out there man!! thanks!!!

guest
You may want to rate the tab now too:
select rating
Wanna post a correction for this tab? Suggest correction