Oops, an error
Loading. Please wait.

Drift And Die Tab

version 6
version 6

Interactive

Video

55,018 views 69 this week
10 commentsread comments
1 2 3 4 5
excellent!
x 18
add to favorites
launch autoscroll
font size
0
reset
how to read this tab
guitar tuner
Autoscroll
slow
fast
+/-
esc
set tempo
stop
Help us to improve Ultimate-Guitar.com Take our survey!
×
Author
Difficulty
Tuning
novice
D# G# C# F# A# D#
Drift and Die by Puddle of Mudd

Tabbed by: Lodi's_"Jesus"

Tuning: 1/2 step down


[Intro/Verse]

D#|-1-1-1--0-0-0-0-0-|      |-3-3-3--3-3-3-3-3-|
A#|-3-3-3--3-3-3-3-3-|      |-0-0-0--0-0-0-0-0-|
F#|-2-2-2--2-2-2-2-2-|      |-0-0-0--0-0-0-0-0-|
C#|-0-0-0--0-0-0-0-0-|(x2)  |-2-2-2--0-0-0-0-0-|(x2)
G#|-0-0-0--0-0-0-0-0-|      |-3-3-3--2-2-2-2-2-|
D#|------------------|      |-0-0-0--3-3-3-3-3-|


[Chorus]

D#|-----------------------|
A#|-----------------------|
F#|-7xx-5x-4x-------------|
C#|-7xx-5x-4x-3xxxx-5xxxx-|x4 first time
G#|-5xx-3x-2x-3xxxx-5xxxx-|x8 second time
D#|-----------1xxxx-3xxxx-|

(Note: First time around, play only 4 times acoustice only. Second time, first 4 are 
then last 4 are acoustic and electric. For third time, see below.)


[Bridge]

 (Sounds clean but maybe some classical effects. Tab is right but dk about effects.):
D#|-------------------------------------------|
A#|-------------------------------------------|
F#|-15-13---12--12-14-12----3/8-7-5-7-8-------|
C#|-------------------------------------------|
G#|-------------------------------------------|
D#|-------------------------------------------|


[Solo]

 (with wah):
D#|----------------------------------------------------------|
A#|----------------------------------------------------------|
F#|-7--7-5-7---------5-------5--7-5--7--3--4-----------------|(x2)
C#|-7--7-5-7---5-5/7---5-5/7---------7--3--4--3-333-55555555-|
G#|-5--5-3-5-------------------------5--5--2--3-333-55555555-|
D#|-------------------------------------------1-111-33333333-|

(Note: Don't play the last note on second round. Just let the 3 ring out.)
                                                              3
                                                              1

[Post-Solo Chorus]

D#|----------------------------------|
A#|----------------------------------|
F#|-7---7-5---5-4---4------------4---|
C#|-7-7---5-5---4-4---3---3-----5-5--|then, electric and acoustic regular
G#|-5-----3-----2-----3-3---3--5---5-|chorus (x8)
D#|-------------------1-------3------|


************************************

| x  Dead note
| /  Slide up

************************************
Suggest correction
comments
print report bad tab
10 comments total. Showing first comments.
0 reply
Seattle_sound35 30 wrote on February 18 2008, 10:58 am

best on the site, about 100%

0 reply
tributeburn51 10 wrote on December 16 2008, 09:32 pm

At what time is the post solo chorus?

+2 reply
ibanezeric82 103 wrote on February 27 2010, 12:14 pm

The B string should not be open during the second part of the intro. Sounds like poop. Make it a 3.

guest
You may want to rate the tab now too:
select rating
Please do not post tabs as comments. Select "correction" instead!