Oops, an error
Loading. Please wait.

Heel Over Head Bass Tab

342 views 1 this week
3 commentsread comments
1 2 3 4 5
please rate
add to favorites
launch autoscroll
font size
0
reset
guitar tuner
Tab Pro tools
  • play this tab
  • loop segment
  • change instrument
  • show fretboard
  • metronome
×
Best way to learn
"Heel Over Head"
Autoscroll
slow
fast
+/-
esc
set tempo
stop
Contributor
intro
only guitars

at 0.07 sec
verse x5

-----------------------------------------------------------------------|
-----------------------------------------------------------------------|
---9-9-9-9-9-9-9-9-9-9-9-9-9-9-9-7-7-7-4-4-4-4-4-4-4-4-4-4-4-4-4-4-4-4-|
-----------------------------------------------------------------------|

before the chorus

----------------------------------------------|
----------------------------------------------|
---9--9-9-9-9-9-9-9--11--11-11-11-11-11-11-11-|
----------------------------------------------|

cotd...
---------------------------------------------|
---------------------------------------------|
---9--9-9-9-9-9-9-9--7-----------------------|
---------------------------------------------|

chorus x2

-----------------------------------------------------------------------|
-----------------------------------------------------------------------|
---9-9-9-9-9-9-9-9-9-9-9-9-9-9-9-7-7-7-4-4-4-4-4-4-4-4-4-4-4-4-4-4-4-4-|
-----------------------------------------------------------------------|

verse x4
-----------------------------------------------------------------------|
-----------------------------------------------------------------------|
---9-9-9-9-9-9-9-9-9-9-9-9-9-9-9-7-7-7-4-4-4-4-4-4-4-4-4-4-4-4-4-4-4-4-|
-----------------------------------------------------------------------|


before the chorus

----------------------------------------------|
----------------------------------------------|
---9--9-9-9-9-9-9-9--11--11-11-11-11-11-11-11-|
----------------------------------------------|

cotd
---------------------------------------------|
---------------------------------------------|
---9--9-9-9-9-9-9-9--7-----------------------|
---------------------------------------------|

chorus x4
-----------------------------------------------------------------------|
-----------------------------------------------------------------------|
---9-9-9-9-9-9-9-9-9-9-9-9-9-9-9-7-7-7-4-4-4-4-4-4-4-4-4-4-4-4-4-4-4-4-|
-----------------------------------------------------------------------|

bridge x4
-----------------------------------------------------------------------|
-----------------------------------------------------------------------|
---9-9-9-9-9-9-9-9-9-9-9-9-9-9-9-7-7-7-4-4-4-4-4-4-4-4-4-4-4-4-4-4-4-4-|
-----------------------------------------------------------------------|
chorus x8
-----------------------------------------------------------------------|
-----------------------------------------------------------------------|
---9-9-9-9-9-9-9-9-9-9-9-9-9-9-9-7-7-7-4-4-4-4-4-4-4-4-4-4-4-4-4-4-4-4-|
-----------------------------------------------------------------------|

end with
------------------|
------------------|
------------------|
--9---------------|
comments
We did not receive enough feedback on this tab! Please rate:
print report bad tab
1 2 3 4 5
3 comments total.
-1 reply
Coltron0 wrote on October 19 2007, 01:12 am

This is pretty obviously wrong. The bass doesn't play that fast for once, and it's kind of all over the place. You just took the guitar part and made it the bass part, which its not.

-1 reply
Coltron0 wrote on October 19 2007, 01:13 am

Not accurate.

0 reply
screaming_angel wrote on January 12 2009, 03:00 pm

it sound good

I want to post or [tab]
guest
You may want to rate the tab now too:
select rating
Please do not post tabs as comments. Select "correction" instead!