Oops, an error
Loading. Please wait.

If I Could Love You Tab

527 views 1 this week
no commentswrite comment
1 2 3 4 5
please rate
add to favorites
launch autoscroll
font size
0
reset
how to read this tab
guitar tuner
Autoscroll
slow
fast
+/-
esc
set tempo
stop
Help us to improve Ultimate-Guitar.com Take our survey!
×
Difficulty
Tuning
intermediate
D# G# C# F# A# D#
guitar lick played throughout

-----3-------------------------|
-3-6------3-6-5-----3--6-------|
----------------5--------------|
-------------------------------|
-------------------------------|
-------------------------------|

verse chords/bass

-------------------------------|
-------------------------------|
----------6-66--4-44-----------|
-444--44--6-66--4-44-----------|
-444--44--4-44--3-33-----------|
-333--33-----------------------|

then into chorus

------------------------------|
------------------------------|
------------------------------|
-5-5-5--8888------------------|
-5-5-5--8888------------------|
-3-3-3--6666------------------|

Chorus

------------------------------|
------------------------------|
-8888--77--55-----------------|
-8888--77--55-55-5--88-8------|
-6666--55--33-55-5--88-8------|
--------------33-3--66-6------|

listen to song to get strumming right
Suggest correction
Give kudos to tab author, rate the tab!
1 2 3 4 5
comments
print report bad tab
guest
You may want to rate the tab now too:
select rating
Wanna post a correction for this tab? Suggest correction